  0
SECTION
  2
HEADER
  9
$ACADVER
  1
AC1015
  9
$ACADMAINTVER
 70
     6
  9
$DWGCODEPAGE
  3
ANSI_1252
  9
$INSBASE
 10
0.0
 20
0.0
 30
0.0
  9
$EXTMIN
 10
1.000000000000000E+20
 20
1.000000000000000E+20
 30
1.000000000000000E+20
  9
$EXTMAX
 10
-1.000000000000000E+20
 20
-1.000000000000000E+20
 30
-1.000000000000000E+20
  9
$LIMMIN
 10
0.0
 20
0.0
  9
$LIMMAX
 10
12.0
 20
9.0
  9
$ORTHOMODE
 70
     0
  9
$REGENMODE
 70
     1
  9
$FILLMODE
 70
     1
  9
$QTEXTMODE
 70
     0
  9
$MIRRTEXT
 70
     1
  9
$LTSCALE
 40
1.0
  9
$ATTMODE
 70
     1
  9
$TEXTSIZE
 40
0.2
  9
$TRACEWID
 40
0.05
  9
$TEXTSTYLE
  7
Standard
  9
$CLAYER
  8
0
  9
$CELTYPE
  6
ByLayer
  9
$CECOLOR
 62
   256
  9
$CELTSCALE
 40
1.0
  9
$DISPSILH
 70
     0
  9
$DIMSCALE
 40
1.0
  9
$DIMASZ
 40
0.18
  9
$DIMEXO
 40
0.0625
  9
$DIMDLI
 40
0.38
  9
$DIMRND
 40
0.0
  9
$DIMDLE
 40
0.0
  9
$DIMEXE
 40
0.18
  9
$DIMTP
 40
0.0
  9
$DIMTM
 40
0.0
  9
$DIMTXT
 40
0.18
  9
$DIMCEN
 40
0.09
  9
$DIMTSZ
 40
0.0
  9
$DIMTOL
 70
     0
  9
$DIMLIM
 70
     0
  9
$DIMTIH
 70
     1
  9
$DIMTOH
 70
     1
  9
$DIMSE1
 70
     0
  9
$DIMSE2
 70
     0
  9
$DIMTAD
 70
     0
  9
$DIMZIN
 70
     0
  9
$DIMBLK
  1

  9
$DIMASO
 70
     1
  9
$DIMSHO
 70
     1
  9
$DIMPOST
  1

  9
$DIMAPOST
  1

  9
$DIMALT
 70
     0
  9
$DIMALTD
 70
     2
  9
$DIMALTF
 40
25.4
  9
$DIMLFAC
 40
1.0
  9
$DIMTOFL
 70
     0
  9
$DIMTVP
 40
0.0
  9
$DIMTIX
 70
     0
  9
$DIMSOXD
 70
     0
  9
$DIMSAH
 70
     0
  9
$DIMBLK1
  1

  9
$DIMBLK2
  1

  9
$DIMSTYLE
  2
Standard
  9
$DIMCLRD
 70
     0
  9
$DIMCLRE
 70
     0
  9
$DIMCLRT
 70
     0
  9
$DIMTFAC
 40
1.0
  9
$DIMGAP
 40
0.09
  9
$DIMJUST
 70
     0
  9
$DIMSD1
 70
     0
  9
$DIMSD2
 70
     0
  9
$DIMTOLJ
 70
     1
  9
$DIMTZIN
 70
     0
  9
$DIMALTZ
 70
     0
  9
$DIMALTTZ
 70
     0
  9
$DIMUPT
 70
     0
  9
$DIMDEC
 70
     4
  9
$DIMTDEC
 70
     4
  9
$DIMALTU
 70
     2
  9
$DIMALTTD
 70
     2
  9
$DIMTXSTY
  7
Standard
  9
$DIMAUNIT
 70
     0
  9
$DIMADEC
 70
     0
  9
$DIMALTRND
 40
0.0
  9
$DIMAZIN
 70
     0
  9
$DIMDSEP
 70
    46
  9
$DIMATFIT
 70
     3
  9
$DIMFRAC
 70
     0
  9
$DIMLDRBLK
  1

  9
$DIMLUNIT
 70
     2
  9
$DIMLWD
 70
    -2
  9
$DIMLWE
 70
    -2
  9
$DIMTMOVE
 70
     0
  9
$LUNITS
 70
     2
  9
$LUPREC
 70
     4
  9
$SKETCHINC
 40
0.1
  9
$FILLETRAD
 40
0.5
  9
$AUNITS
 70
     0
  9
$AUPREC
 70
     0
  9
$MENU
  1
.
  9
$ELEVATION
 40
0.0
  9
$PELEVATION
 40
0.0
  9
$THICKNESS
 40
0.0
  9
$LIMCHECK
 70
     0
  9
$CHAMFERA
 40
0.5
  9
$CHAMFERB
 40
0.5
  9
$CHAMFERC
 40
1.0
  9
$CHAMFERD
 40
0.0
  9
$SKPOLY
 70
     0
  9
$TDCREATE
 40
2456510.561124699
  9
$TDUCREATE
 40
2456510.165291366
  9
$TDUPDATE
 40
2456510.561124711
  9
$TDUUPDATE
 40
2456510.165291377
  9
$TDINDWG
 40
0.0000000116
  9
$TDUSRTIMER
 40
0.0000000116
  9
$USRTIMER
 70
     1
  9
$ANGBASE
 50
0.0
  9
$ANGDIR
 70
     0
  9
$PDMODE
 70
     0
  9
$PDSIZE
 40
0.0
  9
$PLINEWID
 40
0.0
  9
$SPLFRAME
 70
     0
  9
$SPLINETYPE
 70
     6
  9
$SPLINESEGS
 70
     8
  9
$HANDSEED
  5
5E5
  9
$SURFTAB1
 70
     6
  9
$SURFTAB2
 70
     6
  9
$SURFTYPE
 70
     6
  9
$SURFU
 70
     6
  9
$SURFV
 70
     6
  9
$UCSBASE
  2

  9
$UCSNAME
  2

  9
$UCSORG
 10
0.0
 20
0.0
 30
0.0
  9
$UCSXDIR
 10
1.0
 20
0.0
 30
0.0
  9
$UCSYDIR
 10
0.0
 20
1.0
 30
0.0
  9
$UCSORTHOREF
  2

  9
$UCSORTHOVIEW
 70
     0
  9
$UCSORGTOP
 10
0.0
 20
0.0
 30
0.0
  9
$UCSORGBOTTOM
 10
0.0
 20
0.0
 30
0.0
  9
$UCSORGLEFT
 10
0.0
 20
0.0
 30
0.0
  9
$UCSORGRIGHT
 10
0.0
 20
0.0
 30
0.0
  9
$UCSORGFRONT
 10
0.0
 20
0.0
 30
0.0
  9
$UCSORGBACK
 10
0.0
 20
0.0
 30
0.0
  9
$PUCSBASE
  2

  9
$PUCSNAME
  2

  9
$PUCSORG
 10
0.0
 20
0.0
 30
0.0
  9
$PUCSXDIR
 10
1.0
 20
0.0
 30
0.0
  9
$PUCSYDIR
 10
0.0
 20
1.0
 30
0.0
  9
$PUCSORTHOREF
  2

  9
$PUCSORTHOVIEW
 70
     0
  9
$PUCSORGTOP
 10
0.0
 20
0.0
 30
0.0
  9
$PUCSORGBOTTOM
 10
0.0
 20
0.0
 30
0.0
  9
$PUCSORGLEFT
 10
0.0
 20
0.0
 30
0.0
  9
$PUCSORGRIGHT
 10
0.0
 20
0.0
 30
0.0
  9
$PUCSORGFRONT
 10
0.0
 20
0.0
 30
0.0
  9
$PUCSORGBACK
 10
0.0
 20
0.0
 30
0.0
  9
$USERI1
 70
     0
  9
$USERI2
 70
     0
  9
$USERI3
 70
     0
  9
$USERI4
 70
     0
  9
$USERI5
 70
     0
  9
$USERR1
 40
0.0
  9
$USERR2
 40
0.0
  9
$USERR3
 40
0.0
  9
$USERR4
 40
0.0
  9
$USERR5
 40
0.0
  9
$WORLDVIEW
 70
     1
  9
$SHADEDGE
 70
     3
  9
$SHADEDIF
 70
    70
  9
$TILEMODE
 70
     1
  9
$MAXACTVP
 70
    64
  9
$PINSBASE
 10
0.0
 20
0.0
 30
0.0
  9
$PLIMCHECK
 70
     0
  9
$PEXTMIN
 10
1.000000000000000E+20
 20
1.000000000000000E+20
 30
1.000000000000000E+20
  9
$PEXTMAX
 10
-1.000000000000000E+20
 20
-1.000000000000000E+20
 30
-1.000000000000000E+20
  9
$PLIMMIN
 10
0.0
 20
0.0
  9
$PLIMMAX
 10
12.0
 20
9.0
  9
$UNITMODE
 70
     0
  9
$VISRETAIN
 70
     1
  9
$PLINEGEN
 70
     0
  9
$PSLTSCALE
 70
     1
  9
$TREEDEPTH
 70
  3020
  9
$CMLSTYLE
  2
Standard
  9
$CMLJUST
 70
     0
  9
$CMLSCALE
 40
1.0
  9
$PROXYGRAPHICS
 70
     1
  9
$MEASUREMENT
 70
     0
  9
$CELWEIGHT
370
    -1
  9
$ENDCAPS
280
     0
  9
$JOINSTYLE
280
     0
  9
$LWDISPLAY
290
     1
  9
$INSUNITS
 70
     1
  9
$HYPERLINKBASE
  1

  9
$STYLESHEET
  1

  9
$XEDIT
290
     1
  9
$CEPSNTYPE
380
     0
  9
$PSTYLEMODE
290
     1
  9
$FINGERPRINTGUID
  2
{86EBCD35-0303-4BB2-9BC7-E46162AC1E06}
  9
$VERSIONGUID
  2
{FAEB1C32-E019-11D5-929B-00C0DF256EC4}
  9
$EXTNAMES
290
     1
  9
$PSVPSCALE
 40
0.0
  9
$OLESTARTUP
290
     0
  0
ENDSEC
  0
SECTION
  2
CLASSES
  0
CLASS
  1
ACDBDICTIONARYWDFLT
  2
AcDbDictionaryWithDefault
  3
ObjectDBX Classes
 90
        0
280
     0
281
     0
  0
CLASS
  1
VISUALSTYLE
  2
AcDbVisualStyle
  3
ObjectDBX Classes
 90
     4095
280
     0
281
     0
  0
CLASS
  1
ACDBPLACEHOLDER
  2
AcDbPlaceHolder
  3
ObjectDBX Classes
 90
        0
280
     0
281
     0
  0
CLASS
  1
LAYOUT
  2
AcDbLayout
  3
ObjectDBX Classes
 90
        0
280
     0
281
     0
  0
ENDSEC
  0
SECTION
  2
TABLES
  0
TABLE
  2
VPORT
  5
8
330
0
100
AcDbSymbolTable
 70
     1
  0
VPORT
  5
29
330
8
100
AcDbSymbolTableRecord
100
AcDbViewportTableRecord
  2
*Active
 70
     0
 10
0.0
 20
0.0
 11
1.0
 21
1.0
 12
0.0
 22
0.0
 13
0.0
 23
0.0
 14
0.5
 24
0.5
 15
0.5
 25
0.5
 16
0.0
 26
0.0
 36
1.0
 17
426.763442547389
 27
674.4717507265644
 37
0.0
 40
1348.943501453129
 41
1.129917846737908
 42
50.0
 43
0.0
 44
0.0
 50
0.0
 51
0.0
 71
     0
 72
   100
 73
     1
 74
     3
 75
     0
 76
     0
 77
     0
 78
     0
281
     0
 65
     1
110
0.0
120
0.0
130
0.0
111
1.0
121
0.0
131
0.0
112
0.0
122
1.0
132
0.0
 79
     0
146
0.0
  0
ENDTAB
  0
TABLE
  2
LTYPE
  5
5
330
0
100
AcDbSymbolTable
 70
     1
  0
LTYPE
  5
14
330
5
100
AcDbSymbolTableRecord
100
AcDbLinetypeTableRecord
  2
ByBlock
 70
     0
  3

 72
    65
 73
     0
 40
0.0
  0
LTYPE
  5
15
330
5
100
AcDbSymbolTableRecord
100
AcDbLinetypeTableRecord
  2
ByLayer
 70
     0
  3

 72
    65
 73
     0
 40
0.0
  0
LTYPE
  5
16
330
5
100
AcDbSymbolTableRecord
100
AcDbLinetypeTableRecord
  2
Continuous
 70
     0
  3
Solid line
 72
    65
 73
     0
 40
0.0
  0
ENDTAB
  0
TABLE
  2
LAYER
  5
2
330
0
100
AcDbSymbolTable
 70
     2
  0
LAYER
  5
10
330
2
100
AcDbSymbolTableRecord
100
AcDbLayerTableRecord
  2
0
 70
     0
 62
     7
  6
Continuous
370
    -3
390
F
  0
LAYER
  5
3B
330
2
100
AcDbSymbolTableRecord
100
AcDbLayerTableRecord
  2
Layer 1
 70
     0
 62
     7
  6
Continuous
370
    -3
390
F
  0
ENDTAB
  0
TABLE
  2
STYLE
  5
3
330
0
100
AcDbSymbolTable
 70
     1
  0
STYLE
  5
11
330
3
100
AcDbSymbolTableRecord
100
AcDbTextStyleTableRecord
  2
Standard
 70
     0
 40
0.0
 41
1.0
 50
0.0
 71
     0
 42
0.2
  3
txt
  4

  0
ENDTAB
  0
TABLE
  2
VIEW
  5
6
330
0
100
AcDbSymbolTable
 70
     0
  0
ENDTAB
  0
TABLE
  2
UCS
  5
7
330
0
100
AcDbSymbolTable
 70
     0
  0
ENDTAB
  0
TABLE
  2
APPID
  5
9
330
0
100
AcDbSymbolTable
 70
     1
  0
APPID
  5
12
330
9
100
AcDbSymbolTableRecord
100
AcDbRegAppTableRecord
  2
ACAD
 70
     0
  0
ENDTAB
  0
TABLE
  2
DIMSTYLE
  5
A
330
0
100
AcDbSymbolTable
 70
     1
100
AcDbDimStyleTable
  0
DIMSTYLE
105
27
330
A
100
AcDbSymbolTableRecord
100
AcDbDimStyleTableRecord
  2
Standard
 70
     0
340
11
  0
ENDTAB
  0
TABLE
  2
BLOCK_RECORD
  5
1
330
0
100
AcDbSymbolTable
 70
     3
  0
BLOCK_RECORD
  5
1F
330
1
100
AcDbSymbolTableRecord
100
AcDbBlockTableRecord
  2
*Model_Space
340
22
  0
BLOCK_RECORD
  5
1B
330
1
100
AcDbSymbolTableRecord
100
AcDbBlockTableRecord
  2
*Paper_Space
340
1E
  0
BLOCK_RECORD
  5
23
330
1
100
AcDbSymbolTableRecord
100
AcDbBlockTableRecord
  2
*Paper_Space0
340
26
  0
BLOCK_RECORD
  5
3C
330
1
100
AcDbSymbolTableRecord
100
AcDbBlockTableRecord
  2
block 2
340
0
102
{BLKREFS
331
3D
102
}
  0
BLOCK_RECORD
  5
5D1
330
1
100
AcDbSymbolTableRecord
100
AcDbBlockTableRecord
  2
block 3
340
0
102
{BLKREFS
331
5D2
102
}
  0
ENDTAB
  0
ENDSEC
  0
SECTION
  2
BLOCKS
  0
BLOCK
  5
20
330
1F
100
AcDbEntity
  8
0
100
AcDbBlockBegin
  2
*Model_Space
 70
     0
 71
     0
 10
0.0
 20
0.0
 30
0.0
  3
*Model_Space
  1

  0
ENDBLK
  5
21
330
1F
100
AcDbEntity
  8
0
100
AcDbBlockEnd
  0
BLOCK
  5
1C
330
1B
100
AcDbEntity
 67
     1
  8
0
100
AcDbBlockBegin
  2
*Paper_Space
 70
     0
 71
     0
 10
0.0
 20
0.0
 30
0.0
  3
*Paper_Space
  1

  0
ENDBLK
  5
1D
330
1B
100
AcDbEntity
 67
     1
  8
0
100
AcDbBlockEnd
  0
BLOCK
  5
24
330
23
100
AcDbEntity
  8
0
100
AcDbBlockBegin
  2
*Paper_Space0
 70
     0
 71
     0
 10
0.0
 20
0.0
 30
0.0
  3
*Paper_Space0
  1

  0
ENDBLK
  5
25
330
23
100
AcDbEntity
  8
0
100
AcDbBlockEnd
  0
BLOCK
  5
3E
330
3C
100
AcDbEntity
  8
0
100
AcDbBlockBegin
  2
block 2
 70
     0
 71
     0
 10
0.0
 20
0.0
 30
0.0
  3
block 2
  1

  0
SPLINE
  5
40
330
3C
100
AcDbEntity
  8
Layer 1
 62
     7
370
    15
100
AcDbSpline
210
0.0
220
0.0
230
1.0
 70
     8
 71
     3
 72
     8
 73
     4
 74
     0
 42
0.0000000001
 43
0.0000000001
 40
0.0
 40
0.0
 40
0.0
 40
0.0
 40
1.0
 40
1.0
 40
1.0
 40
1.0
 10
545.4504271097312
 20
61.40297036225343
 30
0.0
 10
547.8671615926339
 20
61.50287813132567
 30
0.0
 10
550.2838960755367
 20
61.60278590039792
 30
0.0
 10
552.6995970297938
 20
61.70338268856721
 30
0.0
  0
SPLINE
  5
41
330
3C
100
AcDbEntity
  8
Layer 1
 62
     7
370
    15
100
AcDbSpline
210
0.0
220
0.0
230
1.0
 70
     8
 71
     3
 72
     8
 73
     4
 74
     0
 42
0.0000000001
 43
0.0000000001
 40
0.0
 40
0.0
 40
0.0
 40
0.0
 40
1.0
 40
1.0
 40
1.0
 40
1.0
 10
552.6995970297938
 20
61.70338268856721
 30
0.0
 10
555.0997950543674
 20
61.80225692899388
 30
0.0
 10
557.4996485693924
 20
61.90113116942055
 30
0.0
 10
559.899846593966
 20
62.00034991939575
 30
0.0
  0
SPLINE
  5
42
330
3C
100
AcDbEntity
  8
Layer 1
 62
     7
370
    15
100
AcDbSpline
210
0.0
220
0.0
230
1.0
 70
     8
 71
     3
 72
     8
 73
     4
 74
     0
 42
0.0000000001
 43
0.0000000001
 40
0.0
 40
0.0
 40
0.0
 40
0.0
 40
1.0
 40
1.0
 40
1.0
 40
1.0
 10
559.899846593966
 20
62.00034991939575
 30
0.0
 10
562.0885157557452
 20
62.09095593065782
 30
0.0
 10
564.2771849175244
 20
62.18156194191989
 30
0.0
 10
566.4658540793037
 20
62.27147893408491
 30
0.0
  0
SPLINE
  5
43
330
3C
100
AcDbEntity
  8
Layer 1
 62
     7
370
    15
100
AcDbSpline
210
0.0
220
0.0
230
1.0
 70
     8
 71
     3
 72
     8
 73
     4
 74
     0
 42
0.0000000001
 43
0.0000000001
 40
0.0
 40
0.0
 40
0.0
 40
0.0
 40
1.0
 40
1.0
 40
1.0
 40
1.0
 10
566.4658540793037
 20
62.27147893408491
 30
0.0
 10
568.4433388878371
 20
62.35381671618238
 30
0.0
 10
570.4208236963705
 20
62.4354654791828
 30
0.0
 10
572.3983085049039
 20
62.5167697326347
 30
0.0
  0
SPLINE
  5
44
330
3C
100
AcDbEntity
  8
Layer 1
 62
     7
370
    15
100
AcDbSpline
210
0.0
220
0.0
230
1.0
 70
     8
 71
     3
 72
     8
 73
     4
 74
     0
 42
0.0000000001
 43
0.0000000001
 40
0.0
 40
0.0
 40
0.0
 40
0.0
 40
1.0
 40
1.0
 40
1.0
 40
1.0
 10
572.3983085049039
 20
62.5167697326347
 30
0.0
 10
574.164264450643
 20
62.59015026647052
 30
0.0
 10
575.9305649059306
 20
62.66249727166077
 30
0.0
 10
577.6958318325726
 20
62.73553329594807
 30
0.0
  0
SPLINE
  5
45
330
3C
100
AcDbEntity
  8
Layer 1
 62
     7
370
    15
100
AcDbSpline
210
0.0
220
0.0
230
1.0
 70
     8
 71
     3
 72
     8
 73
     4
 74
     0
 42
0.0000000001
 43
0.0000000001
 40
0.0
 40
0.0
 40
0.0
 40
0.0
 40
1.0
 40
1.0
 40
1.0
 40
1.0
 10
577.6958318325726
 20
62.73553329594807
 30
0.0
 10
579.0060016456131
 20
62.78962129506649
 30
0.0
 10
580.3161714586536
 20
62.84370929418491
 30
0.0
 10
581.6266857812427
 20
62.89779729330333
 30
0.0
  0
SPLINE
  5
46
330
3C
100
AcDbEntity
  8
Layer 1
 62
     7
370
    15
100
AcDbSpline
210
0.0
220
0.0
230
1.0
 70
     8
 71
     3
 72
     8
 73
     4
 74
     0
 42
0.0000000001
 43
0.0000000001
 40
0.0
 40
0.0
 40
0.0
 40
0.0
 40
1.0
 40
1.0
 40
1.0
 40
1.0
 10
581.6266857812427
 20
62.89779729330333
 30
0.0
 10
582.79043903616
 20
62.94602863009683
 30
0.0
 10
583.9541922910774
 20
62.99425996689033
 30
0.0
 10
585.1172565268978
 20
63.04249130368382
 30
0.0
  0
SPLINE
  5
47
330
3C
100
AcDbEntity
  8
Layer 1
 62
     7
370
    15
100
AcDbSpline
210
0.0
220
0.0
230
1.0
 70
     8
 71
     3
 72
     8
 73
     4
 74
     0
 42
0.0000000001
 43
0.0000000001
 40
0.0
 40
0.0
 40
0.0
 40
0.0
 40
1.0
 40
1.0
 40
1.0
 40
1.0
 10
585.1172565268978
 20
63.04249130368382
 30
0.0
 10
586.1339042045951
 20
63.08417695905535
 30
0.0
 10
587.1495183536467
 20
63.12655163352392
 30
0.0
 10
588.166855050441
 20
63.16823728889544
 30
0.0
  0
SPLINE
  5
48
330
3C
100
AcDbEntity
  8
Layer 1
 62
     7
370
    15
100
AcDbSpline
210
0.0
220
0.0
230
1.0
 70
     8
 71
     3
 72
     8
 73
     4
 74
     0
 42
0.0000000001
 43
0.0000000001
 40
0.0
 40
0.0
 40
0.0
 40
0.0
 40
1.0
 40
1.0
 40
1.0
 40
1.0
 10
588.166855050441
 20
63.16823728889544
 30
0.0
 10
589.0388087177577
 20
63.20475530103909
 30
0.0
 10
589.9107623850745
 20
63.24058429408569
 30
0.0
 10
590.7775484091633
 20
63.27641328713229
 30
0.0
  0
SPLINE
  5
49
330
3C
100
AcDbEntity
  8
Layer 1
 62
     7
370
    15
100
AcDbSpline
210
0.0
220
0.0
230
1.0
 70
     8
 71
     3
 72
     8
 73
     4
 74
     0
 42
0.0000000001
 43
0.0000000001
 40
0.0
 40
0.0
 40
0.0
 40
0.0
 40
1.0
 40
1.0
 40
1.0
 40
1.0
 10
590.7775484091633
 20
63.27641328713229
 30
0.0
 10
591.4968843464834
 20
63.30638561785396
 30
0.0
 10
592.2134642074154
 20
63.33532441993006
 30
0.0
 10
592.9469250362251
 20
63.36633027929731
 30
0.0
  0
SPLINE
  5
4A
330
3C
100
AcDbEntity
  8
Layer 1
 62
     7
370
    15
100
AcDbSpline
210
0.0
220
0.0
230
1.0
 70
     8
 71
     3
 72
     8
 73
     4
 74
     0
 42
0.0000000001
 43
0.0000000001
 40
0.0
 40
0.0
 40
0.0
 40
0.0
 40
1.0
 40
1.0
 40
1.0
 40
1.0
 10
592.9469250362251
 20
63.36633027929731
 30
0.0
 10
593.6290539423046
 20
63.39458006227636
 30
0.0
 10
594.3270302876161
 20
63.42282984525541
 30
0.0
 10
595.0603188616516
 20
63.45349119507413
 30
0.0
  0
SPLINE
  5
4B
330
3C
100
AcDbEntity
  8
Layer 1
 62
     7
370
    15
100
AcDbSpline
210
0.0
220
0.0
230
1.0
 70
     8
 71
     3
 72
     8
 73
     4
 74
     0
 42
0.0000000001
 43
0.0000000001
 40
0.0
 40
0.0
 40
0.0
 40
0.0
 40
1.0
 40
1.0
 40
1.0
 40
1.0
 10
595.0603188616516
 20
63.45349119507413
 30
0.0
 10
596.3846135661817
 20
63.50757919419255
 30
0.0
 10
597.823974459919
 20
63.5675238556359
 30
0.0
 10
599.312944728644
 20
63.62919106482187
 30
0.0
  0
SPLINE
  5
4C
330
3C
100
AcDbEntity
  8
Layer 1
 62
     7
370
    15
100
AcDbSpline
210
0.0
220
0.0
230
1.0
 70
     8
 71
     3
 72
     8
 73
     4
 74
     0
 42
0.0000000001
 43
0.0000000001
 40
0.0
 40
0.0
 40
0.0
 40
0.0
 40
1.0
 40
1.0
 40
1.0
 40
1.0
 10
599.312944728644
 20
63.62919106482187
 30
0.0
 10
601.0995712472945
 20
63.70326061775474
 30
0.0
 10
602.9592337902325
 20
63.77974173752729
 30
0.0
 10
604.8781519755166
 20
63.85863442413951
 30
0.0
  0
SPLINE
  5
4D
330
3C
100
AcDbEntity
  8
Layer 1
 62
     7
370
    15
100
AcDbSpline
210
0.0
220
0.0
230
1.0
 70
     8
 71
     3
 72
     8
 73
     4
 74
     0
 42
0.0000000001
 43
0.0000000001
 40
0.0
 40
0.0
 40
0.0
 40
0.0
 40
1.0
 40
1.0
 40
1.0
 40
1.0
 10
604.8781519755166
 20
63.85863442413951
 30
0.0
 10
606.3264701175157
 20
63.91857908558286
 30
0.0
 10
607.8092392143672
 20
63.98024629476883
 30
0.0
 10
609.3188800560036
 20
64.04260252305185
 30
0.0
  0
SPLINE
  5
4E
330
3C
100
AcDbEntity
  8
Layer 1
 62
     7
370
    15
100
AcDbSpline
210
0.0
220
0.0
230
1.0
 70
     8
 71
     3
 72
     8
 73
     4
 74
     0
 42
0.0000000001
 43
0.0000000001
 40
0.0
 40
0.0
 40
0.0
 40
0.0
 40
1.0
 40
1.0
 40
1.0
 40
1.0
 10
609.3188800560036
 20
64.04260252305185
 30
0.0
 10
610.9628796215649
 20
64.1108154136598
 30
0.0
 10
612.6392630846874
 20
64.1797173233648
 30
0.0
 10
614.343207311692
 20
64.24965276171537
 30
0.0
  0
SPLINE
  5
4F
330
3C
100
AcDbEntity
  8
Layer 1
 62
     7
370
    15
100
AcDbSpline
210
0.0
220
0.0
230
1.0
 70
     8
 71
     3
 72
     8
 73
     4
 74
     0
 42
0.0000000001
 43
0.0000000001
 40
0.0
 40
0.0
 40
0.0
 40
0.0
 40
1.0
 40
1.0
 40
1.0
 40
1.0
 10
614.343207311692
 20
64.24965276171537
 30
0.0
 10
616.1835773199125
 20
64.32613388148792
 30
0.0
 10
618.0556422065972
 20
64.40364852990604
 30
0.0
 10
619.9525117807758
 20
64.4818521974212
 30
0.0
  0
SPLINE
  5
50
330
3C
100
AcDbEntity
  8
Layer 1
 62
     7
370
    15
100
AcDbSpline
210
0.0
220
0.0
230
1.0
 70
     8
 71
     3
 72
     8
 73
     4
 74
     0
 42
0.0000000001
 43
0.0000000001
 40
0.0
 40
0.0
 40
0.0
 40
0.0
 40
1.0
 40
1.0
 40
1.0
 40
1.0
 10
619.9525117807758
 20
64.4818521974212
 30
0.0
 10
621.9913192889467
 20
64.5659125272613
 30
0.0
 10
624.0583765800966
 20
64.65169540484402
 30
0.0
 10
626.1440373868668
 20
64.73816730152379
 30
0.0
  0
SPLINE
  5
51
330
3C
100
AcDbEntity
  8
Layer 1
 62
     7
370
    15
100
AcDbSpline
210
0.0
220
0.0
230
1.0
 70
     8
 71
     3
 72
     8
 73
     4
 74
     0
 42
0.0000000001
 43
0.0000000001
 40
0.0
 40
0.0
 40
0.0
 40
0.0
 40
1.0
 40
1.0
 40
1.0
 40
1.0
 10
626.1440373868668
 20
64.73816730152379
 30
0.0
 10
628.3874835668615
 20
64.83049586052849
 30
0.0
 10
630.6516003197677
 20
64.92454696727582
 30
0.0
 10
632.9205402063533
 20
65.01756454537755
 30
0.0
  0
SPLINE
  5
52
330
3C
100
AcDbEntity
  8
Layer 1
 62
     7
370
    15
100
AcDbSpline
210
0.0
220
0.0
230
1.0
 70
     8
 71
     3
 72
     8
 73
     4
 74
     0
 42
0.0000000001
 43
0.0000000001
 40
0.0
 40
0.0
 40
0.0
 40
0.0
 40
1.0
 40
1.0
 40
1.0
 40
1.0
 10
632.9205402063533
 20
65.01756454537755
 30
0.0
 10
635.3741372109481
 20
65.11919486219243
 30
0.0
 10
637.8332463683195
 20
65.22048066945877
 30
0.0
 10
640.280642201041
 20
65.32211098627364
 30
0.0
  0
SPLINE
  5
53
330
3C
100
AcDbEntity
  8
Layer 1
 62
     7
370
    15
100
AcDbSpline
210
0.0
220
0.0
230
1.0
 70
     8
 71
     3
 72
     8
 73
     4
 74
     0
 42
0.0000000001
 43
0.0000000001
 40
0.0
 40
0.0
 40
0.0
 40
0.0
 40
1.0
 40
1.0
 40
1.0
 40
1.0
 10
640.280642201041
 20
65.32211098627364
 30
0.0
 10
642.2595050477685
 20
65.40341523972553
 30
0.0
 10
644.2300996653314
 20
65.48506400272596
 30
0.0
 10
646.1848468436622
 20
65.5656792370808
 30
0.0
  0
SPLINE
  5
54
330
3C
100
AcDbEntity
  8
Layer 1
 62
     7
370
    15
100
AcDbSpline
210
0.0
220
0.0
230
1.0
 70
     8
 71
     3
 72
     8
 73
     4
 74
     0
 42
0.0000000001
 43
0.0000000001
 40
0.0
 40
0.0
 40
0.0
 40
0.0
 40
1.0
 40
1.0
 40
1.0
 40
1.0
 10
646.1848468436622
 20
65.5656792370808
 30
0.0
 10
648.2829099941792
 20
65.65215113376058
 30
0.0
 10
650.3616806099791
 20
65.73896753998888
 30
0.0
 10
652.416335557382
 20
65.82371688892601
 30
0.0
  0
SPLINE
  5
55
330
3C
100
AcDbEntity
  8
Layer 1
 62
     7
370
    15
100
AcDbSpline
210
0.0
220
0.0
230
1.0
 70
     8
 71
     3
 72
     8
 73
     4
 74
     0
 42
0.0000000001
 43
0.0000000001
 40
0.0
 40
0.0
 40
0.0
 40
0.0
 40
1.0
 40
1.0
 40
1.0
 40
1.0
 10
652.416335557382
 20
65.82371688892601
 30
0.0
 10
654.6384221453682
 20
65.91535642883366
 30
0.0
 10
656.8329479694723
 20
66.00596244009573
 30
0.0
 10
658.9764863803948
 20
66.09484590361518
 30
0.0
  0
SPLINE
  5
56
330
3C
100
AcDbEntity
  8
Layer 1
 62
     7
370
    15
100
AcDbSpline
210
0.0
220
0.0
230
1.0
 70
     8
 71
     3
 72
     8
 73
     4
 74
     0
 42
0.0000000001
 43
0.0000000001
 40
0.0
 40
0.0
 40
0.0
 40
0.0
 40
1.0
 40
1.0
 40
1.0
 40
1.0
 10
658.9764863803948
 20
66.09484590361518
 30
0.0
 10
661.3129501384913
 20
66.19130857720218
 30
0.0
 10
663.5887802160473
 20
66.2853596839495
 30
0.0
 10
665.8659883317974
 20
66.37941079069682
 30
0.0
  0
SPLINE
  5
57
330
3C
100
AcDbEntity
  8
Layer 1
 62
     7
370
    15
100
AcDbSpline
210
0.0
220
0.0
230
1.0
 70
     8
 71
     3
 72
     8
 73
     4
 74
     0
 42
0.0000000001
 43
0.0000000001
 40
0.0
 40
0.0
 40
0.0
 40
0.0
 40
1.0
 40
1.0
 40
1.0
 40
1.0
 10
305.7424057937901
 20
66.37941079069682
 30
0.0
 10
308.4623086793949
 20
66.26710067787768
 30
0.0
 10
311.1822115649996
 20
66.15479056505853
 30
0.0
 10
313.9424220677818
 20
66.0400688853997
 30
0.0
  0
SPLINE
  5
58
330
3C
100
AcDbEntity
  8
Layer 1
 62
     7
370
    15
100
AcDbSpline
210
0.0
220
0.0
230
1.0
 70
     8
 71
     3
 72
     8
 73
     4
 74
     0
 42
0.0000000001
 43
0.0000000001
 40
0.0
 40
0.0
 40
0.0
 40
0.0
 40
1.0
 40
1.0
 40
1.0
 40
1.0
 10
313.9424220677818
 20
66.0400688853997
 30
0.0
 10
316.4373602181997
 20
65.93671602084221
 30
0.0
 10
318.9645100114047
 20
65.83267413718767
 30
0.0
 10
321.5218043901057
 20
65.72725421533902
 30
0.0
  0
SPLINE
  5
59
330
3C
100
AcDbEntity
  8
Layer 1
 62
     7
370
    15
100
AcDbSpline
210
0.0
220
0.0
230
1.0
 70
     8
 71
     3
 72
     8
 73
     4
 74
     0
 42
0.0000000001
 43
0.0000000001
 40
0.0
 40
0.0
 40
0.0
 40
0.0
 40
1.0
 40
1.0
 40
1.0
 40
1.0
 10
321.5218043901057
 20
65.72725421533902
 30
0.0
 10
323.8153767094108
 20
65.63251408949465
 30
0.0
 10
326.1322034232413
 20
65.5367404350047
 30
0.0
 10
328.4807250155361
 20
65.43924423277214
 30
0.0
  0
SPLINE
  5
5A
330
3C
100
AcDbEntity
  8
Layer 1
 62
     7
370
    15
100
AcDbSpline
210
0.0
220
0.0
230
1.0
 70
     8
 71
     3
 72
     8
 73
     4
 74
     0
 42
0.0000000001
 43
0.0000000001
 40
0.0
 40
0.0
 40
0.0
 40
0.0
 40
1.0
 40
1.0
 40
1.0
 40
1.0
 10
328.4807250155361
 20
65.43924423277214
 30
0.0
 10
330.5662135675321
 20
65.35380586473794
 30
0.0
 10
332.6768513165704
 20
65.26630043941259
 30
0.0
 10
334.8181504154274
 20
65.1781059949902
 30
0.0
  0
SPLINE
  5
5B
330
3C
100
AcDbEntity
  8
Layer 1
 62
     7
370
    15
100
AcDbSpline
210
0.0
220
0.0
230
1.0
 70
     8
 71
     3
 72
     8
 73
     4
 74
     0
 42
0.0000000001
 43
0.0000000001
 40
0.0
 40
0.0
 40
0.0
 40
0.0
 40
1.0
 40
1.0
 40
1.0
 40
1.0
 10
334.8181504154274
 20
65.1781059949902
 30
0.0
 10
336.6974500026312
 20
65.09990232747502
 30
0.0
 10
338.6000039843605
 20
65.02169865995985
 30
0.0
 10
340.534941863651
 20
64.94177244470205
 30
0.0
  0
SPLINE
  5
5C
330
3C
100
AcDbEntity
  8
Layer 1
 62
     7
370
    15
100
AcDbSpline
210
0.0
220
0.0
230
1.0
 70
     8
 71
     3
 72
     8
 73
     4
 74
     0
 42
0.0000000001
 43
0.0000000001
 40
0.0
 40
0.0
 40
0.0
 40
0.0
 40
1.0
 40
1.0
 40
1.0
 40
1.0
 10
340.534941863651
 20
64.94177244470205
 30
0.0
 10
342.2061576835457
 20
64.87183700635148
 30
0.0
 10
343.9013169170629
 20
64.80224607754944
 30
0.0
 10
345.6310993602068
 20
64.73058809145624
 30
0.0
  0
SPLINE
  5
5D
330
3C
100
AcDbEntity
  8
Layer 1
 62
     7
370
    15
100
AcDbSpline
210
0.0
220
0.0
230
1.0
 70
     8
 71
     3
 72
     8
 73
     4
 74
     0
 42
0.0000000001
 43
0.0000000001
 40
0.0
 40
0.0
 40
0.0
 40
0.0
 40
1.0
 40
1.0
 40
1.0
 40
1.0
 10
345.6310993602068
 20
64.73058809145624
 30
0.0
 10
347.0937146484696
 20
64.6706434300129
 30
0.0
 10
348.5811346242263
 20
64.60897622082693
 30
0.0
 10
350.1064506503207
 20
64.54593097344686
 30
0.0
  0
SPLINE
  5
5E
330
3C
100
AcDbEntity
  8
Layer 1
 62
     7
370
    15
100
AcDbSpline
210
0.0
220
0.0
230
1.0
 70
     8
 71
     3
 72
     8
 73
     4
 74
     0
 42
0.0000000001
 43
0.0000000001
 40
0.0
 40
0.0
 40
0.0
 40
0.0
 40
1.0
 40
1.0
 40
1.0
 40
1.0
 10
350.1064506503207
 20
64.54593097344686
 30
0.0
 10
351.3604654069516
 20
64.4942545411681
 30
0.0
 10
352.6399738701734
 20
64.44120007069526
 30
0.0
 10
353.9606512244439
 20
64.38711207157684
 30
0.0
  0
SPLINE
  5
5F
330
3C
100
AcDbEntity
  8
Layer 1
 62
     7
370
    15
100
AcDbSpline
210
0.0
220
0.0
230
1.0
 70
     8
 71
     3
 72
     8
 73
     4
 74
     0
 42
0.0000000001
 43
0.0000000001
 40
0.0
 40
0.0
 40
0.0
 40
0.0
 40
1.0
 40
1.0
 40
1.0
 40
1.0
 10
353.9606512244439
 20
64.38711207157684
 30
0.0
 10
355.0083047615084
 20
64.34370386846268
 30
0.0
 10
356.082313279035
 20
64.29891762715444
 30
0.0
 10
357.1942178468994
 20
64.25309785720061
 30
0.0
  0
SPLINE
  5
60
330
3C
100
AcDbEntity
  8
Layer 1
 62
     7
370
    15
100
AcDbSpline
210
0.0
220
0.0
230
1.0
 70
     8
 71
     3
 72
     8
 73
     4
 74
     0
 42
0.0000000001
 43
0.0000000001
 40
0.0
 40
0.0
 40
0.0
 40
0.0
 40
1.0
 40
1.0
 40
1.0
 40
1.0
 10
357.1942178468994
 20
64.25309785720061
 30
0.0
 10
357.8551594157445
 20
64.22553709331862
 30
0.0
 10
358.5298813665307
 20
64.19832083898514
 30
0.0
 10
359.2120102726102
 20
64.16972654645757
 30
0.0
  0
SPLINE
  5
61
330
3C
100
AcDbEntity
  8
Layer 1
 62
     7
370
    15
100
AcDbSpline
210
0.0
220
0.0
230
1.0
 70
     8
 71
     3
 72
     8
 73
     4
 74
     0
 42
0.0000000001
 43
0.0000000001
 40
0.0
 40
0.0
 40
0.0
 40
0.0
 40
1.0
 40
1.0
 40
1.0
 40
1.0
 10
359.2120102726102
 20
64.16972654645757
 30
0.0
 10
359.7689099578009
 20
64.1466444067064
 30
0.0
 10
360.3313217957679
 20
64.12321775740669
 30
0.0
 10
360.8808145256652
 20
64.10082463675258
 30
0.0
  0
SPLINE
  5
62
330
3C
100
AcDbEntity
  8
Layer 1
 62
     7
370
    15
100
AcDbSpline
210
0.0
220
0.0
230
1.0
 70
     8
 71
     3
 72
     8
 73
     4
 74
     0
 42
0.0000000001
 43
0.0000000001
 40
0.0
 40
0.0
 40
0.0
 40
0.0
 40
1.0
 40
1.0
 40
1.0
 40
1.0
 10
360.8808145256652
 20
64.10082463675258
 30
0.0
 10
361.3848319951573
 20
64.08015406384108
 30
0.0
 10
361.8790309425164
 20
64.05913898138105
 30
0.0
 10
362.3847709597511
 20
64.03846840846956
 30
0.0
  0
SPLINE
  5
63
330
3C
100
AcDbEntity
  8
Layer 1
 62
     7
370
    15
100
AcDbSpline
210
0.0
220
0.0
230
1.0
 70
     8
 71
     3
 72
     8
 73
     4
 74
     0
 42
0.0000000001
 43
0.0000000001
 40
0.0
 40
0.0
 40
0.0
 40
0.0
 40
1.0
 40
1.0
 40
1.0
 40
1.0
 10
362.3847709597511
 20
64.03846840846956
 30
0.0
 10
362.9613076892076
 20
64.01504175916985
 30
0.0
 10
363.5536918578963
 20
63.99023707167606
 30
0.0
 10
364.1302285873529
 20
63.96681042237635
 30
0.0
  0
SPLINE
  5
64
330
3C
100
AcDbEntity
  8
Layer 1
 62
     7
370
    15
100
AcDbSpline
210
0.0
220
0.0
230
1.0
 70
     8
 71
     3
 72
     8
 73
     4
 74
     0
 42
0.0000000001
 43
0.0000000001
 40
0.0
 40
0.0
 40
0.0
 40
0.0
 40
1.0
 40
1.0
 40
1.0
 40
1.0
 10
364.1302285873529
 20
63.96681042237635
 30
0.0
 10
364.8173528818859
 20
63.93787162030026
 30
0.0
 10
365.4824285653135
 20
63.91031085641826
 30
0.0
 10
366.1301065165404
 20
63.88378362118183
 30
0.0
  0
SPLINE
  5
65
330
3C
100
AcDbEntity
  8
Layer 1
 62
     7
370
    15
100
AcDbSpline
210
0.0
220
0.0
230
1.0
 70
     8
 71
     3
 72
     8
 73
     4
 74
     0
 42
0.0000000001
 43
0.0000000001
 40
0.0
 40
0.0
 40
0.0
 40
0.0
 40
1.0
 40
1.0
 40
1.0
 40
1.0
 10
366.1301065165404
 20
63.88378362118183
 30
0.0
 10
366.9049084911731
 20
63.85208874271753
 30
0.0
 10
367.654905778312
 20
63.82039386425324
 30
0.0
 10
368.385266021185
 20
63.79042153353156
 30
0.0
  0
SPLINE
  5
66
330
3C
100
AcDbEntity
  8
Layer 1
 62
     7
370
    15
100
AcDbSpline
210
0.0
220
0.0
230
1.0
 70
     8
 71
     3
 72
     8
 73
     4
 74
     0
 42
0.0000000001
 43
0.0000000001
 40
0.0
 40
0.0
 40
0.0
 40
0.0
 40
1.0
 40
1.0
 40
1.0
 40
1.0
 10
368.385266021185
 20
63.79042153353156
 30
0.0
 10
369.7312648272721
 20
63.73461098667052
 30
0.0
 10
371.009567507074
 20
63.68224553529472
 30
0.0
 10
372.246529041053
 20
63.6309136125645
 30
0.0
  0
SPLINE
  5
67
330
3C
100
AcDbEntity
  8
Layer 1
 62
     7
370
    15
100
AcDbSpline
210
0.0
220
0.0
230
1.0
 70
     8
 71
     3
 72
     8
 73
     4
 74
     0
 42
0.0000000001
 43
0.0000000001
 40
0.0
 40
0.0
 40
0.0
 40
0.0
 40
1.0
 40
1.0
 40
1.0
 40
1.0
 10
372.246529041053
 20
63.6309136125645
 30
0.0
 10
373.7797687867634
 20
63.5675238556359
 30
0.0
 10
375.250135539868
 20
63.5068901750955
 30
0.0
 10
376.6819172235379
 20
63.44763453274921
 30
0.0
  0
SPLINE
  5
68
330
3C
100
AcDbEntity
  8
Layer 1
 62
     7
370
    15
100
AcDbSpline
210
0.0
220
0.0
230
1.0
 70
     8
 71
     3
 72
     8
 73
     4
 74
     0
 42
0.0000000001
 43
0.0000000001
 40
0.0
 40
0.0
 40
0.0
 40
0.0
 40
1.0
 40
1.0
 40
1.0
 40
1.0
 10
376.6819172235379
 20
63.44763453274921
 30
0.0
 10
378.400675361129
 20
63.37701007530158
 30
0.0
 10
380.0631061875363
 20
63.30810816559659
 30
0.0
 10
381.6907415495426
 20
63.24058429408569
 30
0.0
  0
SPLINE
  5
69
330
3C
100
AcDbEntity
  8
Layer 1
 62
     7
370
    15
100
AcDbSpline
210
0.0
220
0.0
230
1.0
 70
     8
 71
     3
 72
     8
 73
     4
 74
     0
 42
0.0000000001
 43
0.0000000001
 40
0.0
 40
0.0
 40
0.0
 40
0.0
 40
1.0
 40
1.0
 40
1.0
 40
1.0
 10
381.6907415495426
 20
63.24058429408569
 30
0.0
 10
383.5945013146917
 20
63.16238062657052
 30
0.0
 10
385.4502019978215
 20
63.08521048770092
 30
0.0
 10
387.2736910381643
 20
63.01010740612248
 30
0.0
  0
SPLINE
  5
6A
330
3C
100
AcDbEntity
  8
Layer 1
 62
     7
370
    15
100
AcDbSpline
210
0.0
220
0.0
230
1.0
 70
     8
 71
     3
 72
     8
 73
     4
 74
     0
 42
0.0000000001
 43
0.0000000001
 40
0.0
 40
0.0
 40
0.0
 40
0.0
 40
1.0
 40
1.0
 40
1.0
 40
1.0
 10
387.2736910381643
 20
63.01010740612248
 30
0.0
 10
389.5114528106083
 20
62.91777884711778
 30
0.0
 10
391.7018445201301
 20
62.82717283585571
 30
0.0
 10
393.861402625059
 20
62.73828937233626
 30
0.0
  0
SPLINE
  5
6B
330
3C
100
AcDbEntity
  8
Layer 1
 62
     7
370
    15
100
AcDbSpline
210
0.0
220
0.0
230
1.0
 70
     8
 71
     3
 72
     8
 73
     4
 74
     0
 42
0.0000000001
 43
0.0000000001
 40
0.0
 40
0.0
 40
0.0
 40
0.0
 40
1.0
 40
1.0
 40
1.0
 40
1.0
 10
393.861402625059
 20
62.73828937233626
 30
0.0
 10
396.3101764959745
 20
62.63665905552139
 30
0.0
 10
398.7189872592613
 20
62.53675128644915
 30
0.0
 10
401.1019598064086
 20
62.43856606511953
 30
0.0
  0
SPLINE
  5
6C
330
3C
100
AcDbEntity
  8
Layer 1
 62
     7
370
    15
100
AcDbSpline
210
0.0
220
0.0
230
1.0
 70
     8
 71
     3
 72
     8
 73
     4
 74
     0
 42
0.0000000001
 43
0.0000000001
 40
0.0
 40
0.0
 40
0.0
 40
0.0
 40
1.0
 40
1.0
 40
1.0
 40
1.0
 10
401.1019598064086
 20
62.43856606511953
 30
0.0
 10
403.7615735210214
 20
62.32901202868858
 30
0.0
 10
406.3886310832987
 20
62.21980250180616
 30
0.0
 10
408.9958793465358
 20
62.11266003221489
 30
0.0
  0
SPLINE
  5
6D
330
3C
100
AcDbEntity
  8
Layer 1
 62
     7
370
    15
100
AcDbSpline
210
0.0
220
0.0
230
1.0
 70
     8
 71
     3
 72
     8
 73
     4
 74
     0
 42
0.0000000001
 43
0.0000000001
 40
0.0
 40
0.0
 40
0.0
 40
0.0
 40
1.0
 40
1.0
 40
1.0
 40
1.0
 10
408.9958793465358
 20
62.11266003221489
 30
0.0
 10
411.8671941787172
 20
61.99345972842525
 30
0.0
 10
414.7138765781792
 20
61.87632648192675
 30
0.0
 10
417.5422999715693
 20
61.75884872587974
 30
0.0
  0
SPLINE
  5
6E
330
3C
100
AcDbEntity
  8
Layer 1
 62
     7
370
    15
100
AcDbSpline
210
0.0
220
0.0
230
1.0
 70
     8
 71
     3
 72
     8
 73
     4
 74
     0
 42
0.0000000001
 43
0.0000000001
 40
0.0
 40
0.0
 40
0.0
 40
0.0
 40
1.0
 40
1.0
 40
1.0
 40
1.0
 10
417.5422999715693
 20
61.75884872587974
 30
0.0
 10
420.4265339118205
 20
61.63999293163862
 30
0.0
 10
423.291992081677
 20
61.52182615649455
 30
0.0
 10
426.1574502515336
 20
61.40297036225343
 30
0.0
  0
POLYLINE
  5
6F
330
3C
100
AcDbEntity
  8
Layer 1
 62
     7
370
    15
100
AcDb2dPolyline
 66
     1
 10
0.0
 20
0.0
 30
0.0
  0
VERTEX
  5
70
330
6F
100
AcDbEntity
  8
Layer 1
 62
     7
370
    15
100
AcDbVertex
100
AcDb2dVertex
 10
270.8041421849031
 20
292.8779024875444
 30
0.0
  0
VERTEX
  5
71
330
6F
100
AcDbEntity
  8
Layer 1
 62
     7
370
    15
100
AcDbVertex
100
AcDb2dVertex
 10
280.8043931047121
 20
292.8779024875444
 30
0.0
  0
SEQEND
  5
72
330
6F
100
AcDbEntity
  8
Layer 1
370
    15
  0
POLYLINE
  5
73
330
3C
100
AcDbEntity
  8
Layer 1
 62
     7
370
    15
100
AcDb2dPolyline
 66
     1
 10
0.0
 20
0.0
 30
0.0
  0
VERTEX
  5
74
330
73
100
AcDbEntity
  8
Layer 1
 62
     7
370
    15
100
AcDbVertex
100
AcDb2dVertex
 10
280.8043931047121
 20
291.3779079132667
 30
0.0
  0
VERTEX
  5
75
330
73
100
AcDbEntity
  8
Layer 1
 62
     7
370
    15
100
AcDbVertex
100
AcDb2dVertex
 10
280.8043931047121
 20
292.8779024875444
 30
0.0
  0
SEQEND
  5
76
330
73
100
AcDbEntity
  8
Layer 1
370
    15
  0
POLYLINE
  5
77
330
3C
100
AcDbEntity
  8
Layer 1
 62
     7
370
    15
100
AcDb2dPolyline
 66
     1
 10
0.0
 20
0.0
 30
0.0
  0
VERTEX
  5
78
330
77
100
AcDbEntity
  8
Layer 1
 62
     7
370
    15
100
AcDbVertex
100
AcDb2dVertex
 10
270.8041421849031
 20
291.3779079132667
 30
0.0
  0
VERTEX
  5
79
330
77
100
AcDbEntity
  8
Layer 1
 62
     7
370
    15
100
AcDbVertex
100
AcDb2dVertex
 10
270.8041421849031
 20
292.8779024875444
 30
0.0
  0
SEQEND
  5
7A
330
77
100
AcDbEntity
  8
Layer 1
370
    15
  0
POLYLINE
  5
7B
330
3C
100
AcDbEntity
  8
Layer 1
 62
     7
370
    15
100
AcDb2dPolyline
 66
     1
 10
0.0
 20
0.0
 30
0.0
  0
VERTEX
  5
7C
330
7B
100
AcDbEntity
  8
Layer 1
 62
     7
370
    15
100
AcDbVertex
100
AcDb2dVertex
 10
270.8041421849031
 20
291.3779079132667
 30
0.0
  0
VERTEX
  5
7D
330
7B
100
AcDbEntity
  8
Layer 1
 62
     7
370
    15
100
AcDbVertex
100
AcDb2dVertex
 10
280.8043931047121
 20
291.3779079132667
 30
0.0
  0
SEQEND
  5
7E
330
7B
100
AcDbEntity
  8
Layer 1
370
    15
  0
POLYLINE
  5
7F
330
3C
100
AcDbEntity
  8
Layer 1
 62
     7
370
    15
100
AcDb2dPolyline
 66
     1
 10
0.0
 20
0.0
 30
0.0
  0
VERTEX
  5
80
330
7F
100
AcDbEntity
  8
Layer 1
 62
     7
370
    15
100
AcDbVertex
100
AcDb2dVertex
 10
690.803656511327
 20
291.3779079132667
 30
0.0
  0
VERTEX
  5
81
330
7F
100
AcDbEntity
  8
Layer 1
 62
     7
370
    15
100
AcDbVertex
100
AcDb2dVertex
 10
690.803656511327
 20
292.8779024875444
 30
0.0
  0
SEQEND
  5
82
330
7F
100
AcDbEntity
  8
Layer 1
370
    15
  0
POLYLINE
  5
83
330
3C
100
AcDbEntity
  8
Layer 1
 62
     7
370
    15
100
AcDb2dPolyline
 66
     1
 10
0.0
 20
0.0
 30
0.0
  0
VERTEX
  5
84
330
83
100
AcDbEntity
  8
Layer 1
 62
     7
370
    15
100
AcDbVertex
100
AcDb2dVertex
 10
280.8043931047121
 20
292.8779024875444
 30
0.0
  0
VERTEX
  5
85
330
83
100
AcDbEntity
  8
Layer 1
 62
     7
370
    15
100
AcDbVertex
100
AcDb2dVertex
 10
690.803656511327
 20
292.8779024875444
 30
0.0
  0
SEQEND
  5
86
330
83
100
AcDbEntity
  8
Layer 1
370
    15
  0
POLYLINE
  5
87
330
3C
100
AcDbEntity
  8
Layer 1
 62
     7
370
    15
100
AcDb2dPolyline
 66
     1
 10
0.0
 20
0.0
 30
0.0
  0
VERTEX
  5
88
330
87
100
AcDbEntity
  8
Layer 1
 62
     7
370
    15
100
AcDbVertex
100
AcDb2dVertex
 10
280.8043931047121
 20
291.3779079132667
 30
0.0
  0
VERTEX
  5
89
330
87
100
AcDbEntity
  8
Layer 1
 62
     7
370
    15
100
AcDbVertex
100
AcDb2dVertex
 10
690.803656511327
 20
291.3779079132667
 30
0.0
  0
SEQEND
  5
8A
330
87
100
AcDbEntity
  8
Layer 1
370
    15
  0
POLYLINE
  5
8B
330
3C
100
AcDbEntity
  8
Layer 1
 62
     7
370
    15
100
AcDb2dPolyline
 66
     1
 10
0.0
 20
0.0
 30
0.0
  0
VERTEX
  5
8C
330
8B
100
AcDbEntity
  8
Layer 1
 62
     7
370
    15
100
AcDbVertex
100
AcDb2dVertex
 10
700.8040796859101
 20
291.3779079132667
 30
0.0
  0
VERTEX
  5
8D
330
8B
100
AcDbEntity
  8
Layer 1
 62
     7
370
    15
100
AcDbVertex
100
AcDb2dVertex
 10
700.8040796859101
 20
292.8779024875444
 30
0.0
  0
SEQEND
  5
8E
330
8B
100
AcDbEntity
  8
Layer 1
370
    15
  0
POLYLINE
  5
8F
330
3C
100
AcDbEntity
  8
Layer 1
 62
     7
370
    15
100
AcDb2dPolyline
 66
     1
 10
0.0
 20
0.0
 30
0.0
  0
VERTEX
  5
90
330
8F
100
AcDbEntity
  8
Layer 1
 62
     7
370
    15
100
AcDbVertex
100
AcDb2dVertex
 10
690.803656511327
 20
292.8779024875444
 30
0.0
  0
VERTEX
  5
91
330
8F
100
AcDbEntity
  8
Layer 1
 62
     7
370
    15
100
AcDbVertex
100
AcDb2dVertex
 10
700.8040796859101
 20
292.8779024875444
 30
0.0
  0
SEQEND
  5
92
330
8F
100
AcDbEntity
  8
Layer 1
370
    15
  0
POLYLINE
  5
93
330
3C
100
AcDbEntity
  8
Layer 1
 62
     7
370
    15
100
AcDb2dPolyline
 66
     1
 10
0.0
 20
0.0
 30
0.0
  0
VERTEX
  5
94
330
93
100
AcDbEntity
  8
Layer 1
 62
     7
370
    15
100
AcDbVertex
100
AcDb2dVertex
 10
690.803656511327
 20
291.3779079132667
 30
0.0
  0
VERTEX
  5
95
330
93
100
AcDbEntity
  8
Layer 1
 62
     7
370
    15
100
AcDbVertex
100
AcDb2dVertex
 10
700.8040796859101
 20
291.3779079132667
 30
0.0
  0
SEQEND
  5
96
330
93
100
AcDbEntity
  8
Layer 1
370
    15
  0
SPLINE
  5
97
330
3C
100
AcDbEntity
  8
Layer 1
 62
     7
370
    15
100
AcDbSpline
210
0.0
220
0.0
230
1.0
 70
     8
 71
     3
 72
     8
 73
     4
 74
     0
 42
0.0000000001
 43
0.0000000001
 40
0.0
 40
0.0
 40
0.0
 40
0.0
 40
1.0
 40
1.0
 40
1.0
 40
1.0
 10
294.3045165279864
 20
77.87776148226668
 30
0.0
 10
294.3045165279864
 20
71.532240107985
 30
0.0
 10
299.4435654633336
 20
66.38595647211879
 30
0.0
 10
305.788914582841
 20
66.37768824295419
 30
0.0
  0
SPLINE
  5
98
330
3C
100
AcDbEntity
  8
Layer 1
 62
     7
370
    15
100
AcDbSpline
210
0.0
220
0.0
230
1.0
 70
     8
 71
     3
 72
     8
 73
     4
 74
     0
 42
0.0000000001
 43
0.0000000001
 40
0.0
 40
0.0
 40
0.0
 40
0.0
 40
1.0
 40
1.0
 40
1.0
 40
1.0
 10
665.819135033198
 20
66.37768824295419
 30
0.0
 10
672.1650009170282
 20
66.38595647211879
 30
0.0
 10
677.3037053428269
 20
71.532240107985
 30
0.0
 10
677.3037053428269
 20
77.87776148226668
 30
0.0
  0
POLYLINE
  5
99
330
3C
100
AcDbEntity
  8
Layer 1
 62
     7
370
    15
100
AcDb2dPolyline
 66
     1
 10
0.0
 20
0.0
 30
0.0
  0
VERTEX
  5
9A
330
99
100
AcDbEntity
  8
Layer 1
 62
     7
370
    15
100
AcDbVertex
100
AcDb2dVertex
 10
294.3045165279864
 20
77.87776148226668
 30
0.0
  0
VERTEX
  5
9B
330
99
100
AcDbEntity
  8
Layer 1
 62
     7
370
    15
100
AcDbVertex
100
AcDb2dVertex
 10
294.3045165279864
 20
291.3779079132667
 30
0.0
  0
SEQEND
  5
9C
330
99
100
AcDbEntity
  8
Layer 1
370
    15
  0
POLYLINE
  5
9D
330
3C
100
AcDbEntity
  8
Layer 1
 62
     7
370
    15
100
AcDb2dPolyline
 66
     1
 10
0.0
 20
0.0
 30
0.0
  0
VERTEX
  5
9E
330
9D
100
AcDbEntity
  8
Layer 1
 62
     7
370
    15
100
AcDbVertex
100
AcDb2dVertex
 10
677.3037053428269
 20
77.87776148226668
 30
0.0
  0
VERTEX
  5
9F
330
9D
100
AcDbEntity
  8
Layer 1
 62
     7
370
    15
100
AcDbVertex
100
AcDb2dVertex
 10
677.3037053428269
 20
291.3779079132667
 30
0.0
  0
SEQEND
  5
A0
330
9D
100
AcDbEntity
  8
Layer 1
370
    15
  0
SPLINE
  5
A1
330
3C
100
AcDbEntity
  8
Layer 1
 62
     7
370
    15
100
AcDbSpline
210
0.0
220
0.0
230
1.0
 70
     8
 71
     3
 72
     8
 73
     4
 74
     0
 42
0.0000000001
 43
0.0000000001
 40
0.0
 40
0.0
 40
0.0
 40
0.0
 40
1.0
 40
1.0
 40
1.0
 40
1.0
 10
539.4501043030715
 20
61.39125703760358
 30
0.0
 10
540.3768349886037
 20
61.39125703760358
 30
0.0
 10
541.2102035864857
 20
61.39229056624915
 30
0.0
 10
541.9522771540085
 20
61.39229056624915
 30
0.0
  0
SPLINE
  5
A2
330
3C
100
AcDbEntity
  8
Layer 1
 62
     7
370
    15
100
AcDbSpline
210
0.0
220
0.0
230
1.0
 70
     8
 71
     3
 72
     8
 73
     4
 74
     0
 42
0.0000000001
 43
0.0000000001
 40
0.0
 40
0.0
 40
0.0
 40
0.0
 40
1.0
 40
1.0
 40
1.0
 40
1.0
 10
541.9522771540085
 20
61.39229056624915
 30
0.0
 10
542.3243474664155
 20
61.3929795853462
 30
0.0
 10
542.6726466199742
 20
61.3929795853462
 30
0.0
 10
542.9906289332628
 20
61.3929795853462
 30
0.0
  0
SPLINE
  5
A3
330
3C
100
AcDbEntity
  8
Layer 1
 62
     7
370
    15
100
AcDbSpline
210
0.0
220
0.0
230
1.0
 70
     8
 71
     3
 72
     8
 73
     4
 74
     0
 42
0.0000000001
 43
0.0000000001
 40
0.0
 40
0.0
 40
0.0
 40
0.0
 40
1.0
 40
1.0
 40
1.0
 40
1.0
 10
542.9906289332628
 20
61.3929795853462
 30
0.0
 10
543.3075777179058
 20
61.39366860444325
 30
0.0
 10
543.5952431909242
 20
61.39366860444325
 30
0.0
 10
543.8539698618664
 20
61.39470213308883
 30
0.0
  0
SPLINE
  5
A4
330
3C
100
AcDbEntity
  8
Layer 1
 62
     7
370
    15
100
AcDbSpline
210
0.0
220
0.0
230
1.0
 70
     8
 71
     3
 72
     8
 73
     4
 74
     0
 42
0.0000000001
 43
0.0000000001
 40
0.0
 40
0.0
 40
0.0
 40
0.0
 40
1.0
 40
1.0
 40
1.0
 40
1.0
 10
543.8539698618664
 20
61.39470213308883
 30
0.0
 10
544.1126965328086
 20
61.39470213308883
 30
0.0
 10
544.3424844016748
 20
61.39539115218588
 30
0.0
 10
544.5419554302708
 20
61.39539115218588
 30
0.0
  0
SPLINE
  5
A5
330
3C
100
AcDbEntity
  8
Layer 1
 62
     7
370
    15
100
AcDbSpline
210
0.0
220
0.0
230
1.0
 70
     8
 71
     3
 72
     8
 73
     4
 74
     0
 42
0.0000000001
 43
0.0000000001
 40
0.0
 40
0.0
 40
0.0
 40
0.0
 40
1.0
 40
1.0
 40
1.0
 40
1.0
 10
544.5419554302708
 20
61.39539115218588
 30
0.0
 10
544.641863199343
 20
61.39642468083145
 30
0.0
 10
544.7341917583477
 20
61.39642468083145
 30
0.0
 10
544.8175630690907
 20
61.3971136999285
 30
0.0
  0
SPLINE
  5
A6
330
3C
100
AcDbEntity
  8
Layer 1
 62
     7
370
    15
100
AcDbSpline
210
0.0
220
0.0
230
1.0
 70
     8
 71
     3
 72
     8
 73
     4
 74
     0
 42
0.0000000001
 43
0.0000000001
 40
0.0
 40
0.0
 40
0.0
 40
0.0
 40
1.0
 40
1.0
 40
1.0
 40
1.0
 10
544.8175630690907
 20
61.3971136999285
 30
0.0
 10
544.9012788893823
 20
61.3971136999285
 30
0.0
 10
544.9763819709608
 20
61.3971136999285
 30
0.0
 10
545.0435613329232
 20
61.39780271902555
 30
0.0
  0
SPLINE
  5
A7
330
3C
100
AcDbEntity
  8
Layer 1
 62
     7
370
    15
100
AcDbSpline
210
0.0
220
0.0
230
1.0
 70
     8
 71
     3
 72
     8
 73
     4
 74
     0
 42
0.0000000001
 43
0.0000000001
 40
0.0
 40
0.0
 40
0.0
 40
0.0
 40
1.0
 40
1.0
 40
1.0
 40
1.0
 10
545.0435613329232
 20
61.39780271902555
 30
0.0
 10
545.1775755472994
 20
61.39883624767113
 30
0.0
 10
545.2781723354686
 20
61.39952526676818
 30
0.0
 10
545.3463852260767
 20
61.40055879541375
 30
0.0
  0
SPLINE
  5
A8
330
3C
100
AcDbEntity
  8
Layer 1
 62
     7
370
    15
100
AcDbSpline
210
0.0
220
0.0
230
1.0
 70
     8
 71
     3
 72
     8
 73
     4
 74
     0
 42
0.0000000001
 43
0.0000000001
 40
0.0
 40
0.0
 40
0.0
 40
0.0
 40
1.0
 40
1.0
 40
1.0
 40
1.0
 10
545.3463852260767
 20
61.40055879541375
 30
0.0
 10
545.4145981166846
 20
61.4012478145108
 30
0.0
 10
545.4504271097312
 20
61.40297036225343
 30
0.0
 10
545.4504271097312
 20
61.40297036225343
 30
0.0
  0
POLYLINE
  5
A9
330
3C
100
AcDbEntity
  8
Layer 1
 62
     7
370
    15
100
AcDb2dPolyline
 66
     1
 10
0.0
 20
0.0
 30
0.0
  0
VERTEX
  5
AA
330
A9
100
AcDbEntity
  8
Layer 1
 62
     7
370
    15
100
AcDbVertex
100
AcDb2dVertex
 10
665.832915415139
 20
66.37768824295419
 30
0.0
  0
VERTEX
  5
AB
330
A9
100
AcDbEntity
  8
Layer 1
 62
     7
370
    15
100
AcDbVertex
100
AcDb2dVertex
 10
602.4727863077152
 20
63.87792695885691
 30
0.0
  0
VERTEX
  5
AC
330
A9
100
AcDbEntity
  8
Layer 1
 62
     7
370
    15
100
AcDbVertex
100
AcDb2dVertex
 10
539.4501043030715
 20
61.39125703760358
 30
0.0
  0
SEQEND
  5
AD
330
A9
100
AcDbEntity
  8
Layer 1
370
    15
  0
SPLINE
  5
AE
330
3C
100
AcDbEntity
  8
Layer 1
 62
     7
370
    15
100
AcDbSpline
210
0.0
220
0.0
230
1.0
 70
     8
 71
     3
 72
     8
 73
     4
 74
     0
 42
0.0000000001
 43
0.0000000001
 40
0.0
 40
0.0
 40
0.0
 40
0.0
 40
1.0
 40
1.0
 40
1.0
 40
1.0
 10
531.804059383108
 20
61.39470213308883
 30
0.0
 10
532.485154760542
 20
61.39470213308883
 30
0.0
 10
533.1590154374568
 20
61.39366860444325
 30
0.0
 10
533.8256414138526
 20
61.3929795853462
 30
0.0
  0
SPLINE
  5
AF
330
3C
100
AcDbEntity
  8
Layer 1
 62
     7
370
    15
100
AcDbSpline
210
0.0
220
0.0
230
1.0
 70
     8
 71
     3
 72
     8
 73
     4
 74
     0
 42
0.0000000001
 43
0.0000000001
 40
0.0
 40
0.0
 40
0.0
 40
0.0
 40
1.0
 40
1.0
 40
1.0
 40
1.0
 10
533.8256414138526
 20
61.3929795853462
 30
0.0
 10
534.492611899797
 20
61.3929795853462
 30
0.0
 10
535.1516586661253
 20
61.3929795853462
 30
0.0
 10
535.8027817128375
 20
61.39229056624915
 30
0.0
  0
SPLINE
  5
B0
330
3C
100
AcDbEntity
  8
Layer 1
 62
     7
370
    15
100
AcDbSpline
210
0.0
220
0.0
230
1.0
 70
     8
 71
     3
 72
     8
 73
     4
 74
     0
 42
0.0000000001
 43
0.0000000001
 40
0.0
 40
0.0
 40
0.0
 40
0.0
 40
1.0
 40
1.0
 40
1.0
 40
1.0
 10
535.8027817128375
 20
61.39229056624915
 30
0.0
 10
537.105716825359
 20
61.39229056624915
 30
0.0
 10
538.3218355316523
 20
61.39125703760358
 30
0.0
 10
539.4501043030715
 20
61.39125703760358
 30
0.0
  0
POLYLINE
  5
B1
330
3C
100
AcDbEntity
  8
Layer 1
 62
     7
370
    15
100
AcDb2dPolyline
 66
     1
 10
0.0
 20
0.0
 30
0.0
  0
VERTEX
  5
B2
330
B1
100
AcDbEntity
  8
Layer 1
 62
     7
370
    15
100
AcDbVertex
100
AcDb2dVertex
 10
439.8041624877052
 20
61.39470213308883
 30
0.0
  0
VERTEX
  5
B3
330
B1
100
AcDbEntity
  8
Layer 1
 62
     7
370
    15
100
AcDbVertex
100
AcDb2dVertex
 10
531.804059383108
 20
61.39470213308883
 30
0.0
  0
SEQEND
  5
B4
330
B1
100
AcDbEntity
  8
Layer 1
370
    15
  0
SPLINE
  5
B5
330
3C
100
AcDbEntity
  8
Layer 1
 62
     7
370
    15
100
AcDbSpline
210
0.0
220
0.0
230
1.0
 70
     8
 71
     3
 72
     8
 73
     4
 74
     0
 42
0.0000000001
 43
0.0000000001
 40
0.0
 40
0.0
 40
0.0
 40
0.0
 40
1.0
 40
1.0
 40
1.0
 40
1.0
 10
432.1581175677417
 20
61.39125703760358
 30
0.0
 10
433.2865585939353
 20
61.39125703760358
 30
0.0
 10
434.50233279068
 20
61.39229056624915
 30
0.0
 10
435.8050956484272
 20
61.39229056624915
 30
0.0
  0
SPLINE
  5
B6
330
3C
100
AcDbEntity
  8
Layer 1
 62
     7
370
    15
100
AcDbSpline
210
0.0
220
0.0
230
1.0
 70
     8
 71
     3
 72
     8
 73
     4
 74
     0
 42
0.0000000001
 43
0.0000000001
 40
0.0
 40
0.0
 40
0.0
 40
0.0
 40
1.0
 40
1.0
 40
1.0
 40
1.0
 10
435.8050956484272
 20
61.39229056624915
 30
0.0
 10
436.4565632046879
 20
61.3929795853462
 30
0.0
 10
437.1156099710163
 20
61.3929795853462
 30
0.0
 10
437.7825804569606
 20
61.3929795853462
 30
0.0
  0
SPLINE
  5
B7
330
3C
100
AcDbEntity
  8
Layer 1
 62
     7
370
    15
100
AcDbSpline
210
0.0
220
0.0
230
1.0
 70
     8
 71
     3
 72
     8
 73
     4
 74
     0
 42
0.0000000001
 43
0.0000000001
 40
0.0
 40
0.0
 40
0.0
 40
0.0
 40
1.0
 40
1.0
 40
1.0
 40
1.0
 10
437.7825804569606
 20
61.3929795853462
 30
0.0
 10
438.448861923808
 20
61.39366860444325
 30
0.0
 10
439.1227226007228
 20
61.39470213308883
 30
0.0
 10
439.8041624877052
 20
61.39470213308883
 30
0.0
  0
POLYLINE
  5
B8
330
3C
100
AcDbEntity
  8
Layer 1
 62
     7
370
    15
100
AcDb2dPolyline
 66
     1
 10
0.0
 20
0.0
 30
0.0
  0
VERTEX
  5
B9
330
B8
100
AcDbEntity
  8
Layer 1
 62
     7
370
    15
100
AcDbVertex
100
AcDb2dVertex
 10
305.7747896913514
 20
66.37768824295419
 30
0.0
  0
VERTEX
  5
BA
330
B8
100
AcDbEntity
  8
Layer 1
 62
     7
370
    15
100
AcDbVertex
100
AcDb2dVertex
 10
369.1331962510327
 20
63.87792695885691
 30
0.0
  0
VERTEX
  5
BB
330
B8
100
AcDbEntity
  8
Layer 1
 62
     7
370
    15
100
AcDbVertex
100
AcDb2dVertex
 10
432.1581175677417
 20
61.39125703760358
 30
0.0
  0
SEQEND
  5
BC
330
B8
100
AcDbEntity
  8
Layer 1
370
    15
  0
SPLINE
  5
BD
330
3C
100
AcDbEntity
  8
Layer 1
 62
     7
370
    15
100
AcDbSpline
210
0.0
220
0.0
230
1.0
 70
     8
 71
     3
 72
     8
 73
     4
 74
     0
 42
0.0000000001
 43
0.0000000001
 40
0.0
 40
0.0
 40
0.0
 40
0.0
 40
1.0
 40
1.0
 40
1.0
 40
1.0
 10
426.1574502515336
 20
61.40297036225343
 30
0.0
 10
426.1574502515336
 20
61.40297036225343
 30
0.0
 10
426.1932792445802
 20
61.4012478145108
 30
0.0
 10
426.2620088995109
 20
61.40055879541375
 30
0.0
  0
SPLINE
  5
BE
330
3C
100
AcDbEntity
  8
Layer 1
 62
     7
370
    15
100
AcDbSpline
210
0.0
220
0.0
230
1.0
 70
     8
 71
     3
 72
     8
 73
     4
 74
     0
 42
0.0000000001
 43
0.0000000001
 40
0.0
 40
0.0
 40
0.0
 40
0.0
 40
1.0
 40
1.0
 40
1.0
 40
1.0
 10
426.2620088995109
 20
61.40055879541375
 30
0.0
 10
426.3305662996674
 20
61.39952526676818
 30
0.0
 10
426.432024361708
 20
61.39883624767113
 30
0.0
 10
426.5668998499555
 20
61.39780271902555
 30
0.0
  0
SPLINE
  5
BF
330
3C
100
AcDbEntity
  8
Layer 1
 62
     7
370
    15
100
AcDbSpline
210
0.0
220
0.0
230
1.0
 70
     8
 71
     3
 72
     8
 73
     4
 74
     0
 42
0.0000000001
 43
0.0000000001
 40
0.0
 40
0.0
 40
0.0
 40
0.0
 40
1.0
 40
1.0
 40
1.0
 40
1.0
 10
426.5668998499555
 20
61.39780271902555
 30
0.0
 10
426.7016030834288
 20
61.3971136999285
 30
0.0
 10
426.8712740360774
 20
61.39642468083145
 30
0.0
 10
427.0700560455763
 20
61.39539115218588
 30
0.0
  0
SPLINE
  5
C0
330
3C
100
AcDbEntity
  8
Layer 1
 62
     7
370
    15
100
AcDbSpline
210
0.0
220
0.0
230
1.0
 70
     8
 71
     3
 72
     8
 73
     4
 74
     0
 42
0.0000000001
 43
0.0000000001
 40
0.0
 40
0.0
 40
0.0
 40
0.0
 40
1.0
 40
1.0
 40
1.0
 40
1.0
 10
427.0700560455763
 20
61.39539115218588
 30
0.0
 10
427.269354819398
 20
61.39539115218588
 30
0.0
 10
427.4986259239413
 20
61.39470213308883
 30
0.0
 10
427.7576971044321
 20
61.39470213308883
 30
0.0
  0
SPLINE
  5
C1
330
3C
100
AcDbEntity
  8
Layer 1
 62
     7
370
    15
100
AcDbSpline
210
0.0
220
0.0
230
1.0
 70
     8
 71
     3
 72
     8
 73
     4
 74
     0
 42
0.0000000001
 43
0.0000000001
 40
0.0
 40
0.0
 40
0.0
 40
0.0
 40
1.0
 40
1.0
 40
1.0
 40
1.0
 10
427.7576971044321
 20
61.39470213308883
 30
0.0
 10
428.0167682849229
 20
61.39366860444325
 30
0.0
 10
428.3054672865869
 20
61.39366860444325
 30
0.0
 10
428.624483128521
 20
61.3929795853462
 30
0.0
  0
SPLINE
  5
C2
330
3C
100
AcDbEntity
  8
Layer 1
 62
     7
370
    15
100
AcDbSpline
210
0.0
220
0.0
230
1.0
 70
    24
 71
     3
 72
     8
 73
     4
 74
     0
 42
0.0000000001
 43
0.0000000001
 40
0.0
 40
0.0
 40
0.0
 40
0.0
 40
1.0
 40
1.0
 40
1.0
 40
1.0
 10
428.624483128521
 20
61.3929795853462
 30
0.0
 10
428.7843355590365
 20
61.3929795853462
 30
0.0
 10
428.951939454394
 20
61.3929795853462
 30
0.0
 10
429.1248832477535
 20
61.3929795853462
 30
0.0
  0
SPLINE
  5
C3
330
3C
100
AcDbEntity
  8
Layer 1
 62
     7
370
    15
100
AcDbSpline
210
0.0
220
0.0
230
1.0
 70
     8
 71
     3
 72
     8
 73
     4
 74
     0
 42
0.0000000001
 43
0.0000000001
 40
0.0
 40
0.0
 40
0.0
 40
0.0
 40
1.0
 40
1.0
 40
1.0
 40
1.0
 10
429.1248832477535
 20
61.3929795853462
 30
0.0
 10
429.2979992958873
 20
61.3929795853462
 30
0.0
 10
429.4767997515718
 20
61.3929795853462
 30
0.0
 10
429.6614568695812
 20
61.39229056624915
 30
0.0
  0
SPLINE
  5
C4
330
3C
100
AcDbEntity
  8
Layer 1
 62
     7
370
    15
100
AcDbSpline
210
0.0
220
0.0
230
1.0
 70
     8
 71
     3
 72
     8
 73
     4
 74
     0
 42
0.0000000001
 43
0.0000000001
 40
0.0
 40
0.0
 40
0.0
 40
0.0
 40
1.0
 40
1.0
 40
1.0
 40
1.0
 10
429.6614568695812
 20
61.39229056624915
 30
0.0
 10
430.4006021059415
 20
61.39229056624915
 30
0.0
 10
431.231731391758
 20
61.39125703760358
 30
0.0
 10
432.1581175677417
 20
61.39125703760358
 30
0.0
  0
POLYLINE
  5
C5
330
3C
100
AcDbEntity
  8
Layer 1
 62
     7
370
    15
100
AcDb2dPolyline
 66
     1
 10
0.0
 20
0.0
 30
0.0
  0
VERTEX
  5
C6
330
C5
100
AcDbEntity
  8
Layer 1
 62
     7
370
    15
100
AcDbVertex
100
AcDb2dVertex
 10
439.8041624877052
 20
58.47291665204844
 30
0.0
  0
VERTEX
  5
C7
330
C5
100
AcDbEntity
  8
Layer 1
 62
     7
370
    15
100
AcDbVertex
100
AcDb2dVertex
 10
439.8041624877052
 20
61.39470213308883
 30
0.0
  0
SEQEND
  5
C8
330
C5
100
AcDbEntity
  8
Layer 1
370
    15
  0
POLYLINE
  5
C9
330
3C
100
AcDbEntity
  8
Layer 1
 62
     7
370
    15
100
AcDb2dPolyline
 66
     1
 10
0.0
 20
0.0
 30
0.0
  0
VERTEX
  5
CA
330
C9
100
AcDbEntity
  8
Layer 1
 62
     7
370
    15
100
AcDbVertex
100
AcDb2dVertex
 10
429.0883652356099
 20
58.47291665204844
 30
0.0
  0
VERTEX
  5
CB
330
C9
100
AcDbEntity
  8
Layer 1
 62
     7
370
    15
100
AcDbVertex
100
AcDb2dVertex
 10
439.8041624877052
 20
58.47291665204844
 30
0.0
  0
SEQEND
  5
CC
330
C9
100
AcDbEntity
  8
Layer 1
370
    15
  0
POLYLINE
  5
CD
330
3C
100
AcDbEntity
  8
Layer 1
 62
     7
370
    15
100
AcDb2dPolyline
 66
     1
 10
0.0
 20
0.0
 30
0.0
  0
VERTEX
  5
CE
330
CD
100
AcDbEntity
  8
Layer 1
 62
     7
370
    15
100
AcDbVertex
100
AcDb2dVertex
 10
429.0883652356099
 20
58.47291665204844
 30
0.0
  0
VERTEX
  5
CF
330
CD
100
AcDbEntity
  8
Layer 1
 62
     7
370
    15
100
AcDbVertex
100
AcDb2dVertex
 10
426.1574502515336
 20
61.40297036225343
 30
0.0
  0
SEQEND
  5
D0
330
CD
100
AcDbEntity
  8
Layer 1
370
    15
  0
POLYLINE
  5
D1
330
3C
100
AcDbEntity
  8
Layer 1
 62
     7
370
    15
100
AcDb2dPolyline
 66
     1
 10
0.0
 20
0.0
 30
0.0
  0
VERTEX
  5
D2
330
D1
100
AcDbEntity
  8
Layer 1
 62
     7
370
    15
100
AcDbVertex
100
AcDb2dVertex
 10
542.5196843804291
 20
58.47291665204844
 30
0.0
  0
VERTEX
  5
D3
330
D1
100
AcDbEntity
  8
Layer 1
 62
     7
370
    15
100
AcDbVertex
100
AcDb2dVertex
 10
545.4504271097312
 20
61.40297036225343
 30
0.0
  0
SEQEND
  5
D4
330
D1
100
AcDbEntity
  8
Layer 1
370
    15
  0
POLYLINE
  5
D5
330
3C
100
AcDbEntity
  8
Layer 1
 62
     7
370
    15
100
AcDb2dPolyline
 66
     1
 10
0.0
 20
0.0
 30
0.0
  0
VERTEX
  5
D6
330
D5
100
AcDbEntity
  8
Layer 1
 62
     7
370
    15
100
AcDbVertex
100
AcDb2dVertex
 10
531.804059383108
 20
58.47291665204844
 30
0.0
  0
VERTEX
  5
D7
330
D5
100
AcDbEntity
  8
Layer 1
 62
     7
370
    15
100
AcDbVertex
100
AcDb2dVertex
 10
542.5196843804291
 20
58.47291665204844
 30
0.0
  0
SEQEND
  5
D8
330
D5
100
AcDbEntity
  8
Layer 1
370
    15
  0
POLYLINE
  5
D9
330
3C
100
AcDbEntity
  8
Layer 1
 62
     7
370
    15
100
AcDb2dPolyline
 66
     1
 10
0.0
 20
0.0
 30
0.0
  0
VERTEX
  5
DA
330
D9
100
AcDbEntity
  8
Layer 1
 62
     7
370
    15
100
AcDbVertex
100
AcDb2dVertex
 10
531.804059383108
 20
58.47291665204844
 30
0.0
  0
VERTEX
  5
DB
330
D9
100
AcDbEntity
  8
Layer 1
 62
     7
370
    15
100
AcDbVertex
100
AcDb2dVertex
 10
531.804059383108
 20
61.39470213308883
 30
0.0
  0
SEQEND
  5
DC
330
D9
100
AcDbEntity
  8
Layer 1
370
    15
  0
POLYLINE
  5
DD
330
3C
100
AcDbEntity
  8
Layer 1
 62
     7
370
    15
100
AcDb2dPolyline
 66
     1
 10
0.0
 20
0.0
 30
0.0
  0
VERTEX
  5
DE
330
DD
100
AcDbEntity
  8
Layer 1
 62
     7
370
    15
100
AcDbVertex
100
AcDb2dVertex
 10
439.8041624877052
 20
58.47291665204844
 30
0.0
  0
VERTEX
  5
DF
330
DD
100
AcDbEntity
  8
Layer 1
 62
     7
370
    15
100
AcDbVertex
100
AcDb2dVertex
 10
531.804059383108
 20
58.47291665204844
 30
0.0
  0
SEQEND
  5
E0
330
DD
100
AcDbEntity
  8
Layer 1
370
    15
  0
SPLINE
  5
E1
330
3C
100
AcDbEntity
  8
Layer 1
 62
     7
370
    15
100
AcDbSpline
210
0.0
220
0.0
230
1.0
 70
     8
 71
     3
 72
     8
 73
     4
 74
     0
 42
0.0000000001
 43
0.0000000001
 40
0.0
 40
0.0
 40
0.0
 40
0.0
 40
1.0
 40
1.0
 40
1.0
 40
1.0
 10
452.3043469463857
 20
56.37898761611359
 30
0.0
 10
452.1593084264567
 20
56.37898761611359
 30
0.0
 10
452.0146144160763
 20
56.37898761611359
 30
0.0
 10
451.8692313865987
 20
56.37829859701654
 30
0.0
  0
POLYLINE
  5
E2
330
3C
100
AcDbEntity
  8
Layer 1
 62
     7
370
    15
100
AcDb2dPolyline
 66
     1
 10
0.0
 20
0.0
 30
0.0
  0
VERTEX
  5
E3
330
E2
100
AcDbEntity
  8
Layer 1
 62
     7
370
    15
100
AcDbVertex
100
AcDb2dVertex
 10
442.3135700391612
 20
56.37829859701654
 30
0.0
  0
VERTEX
  5
E4
330
E2
100
AcDbEntity
  8
Layer 1
 62
     7
370
    15
100
AcDbVertex
100
AcDb2dVertex
 10
451.8692313865987
 20
56.37829859701654
 30
0.0
  0
SEQEND
  5
E5
330
E2
100
AcDbEntity
  8
Layer 1
370
    15
  0
POLYLINE
  5
E6
330
3C
100
AcDbEntity
  8
Layer 1
 62
     7
370
    15
100
AcDb2dPolyline
 66
     1
 10
0.0
 20
0.0
 30
0.0
  0
VERTEX
  5
E7
330
E6
100
AcDbEntity
  8
Layer 1
 62
     7
370
    15
100
AcDbVertex
100
AcDb2dVertex
 10
442.3135700391612
 20
56.37829859701654
 30
0.0
  0
VERTEX
  5
E8
330
E6
100
AcDbEntity
  8
Layer 1
 62
     7
370
    15
100
AcDbVertex
100
AcDb2dVertex
 10
439.8041624877052
 20
56.77517359691732
 30
0.0
  0
SEQEND
  5
E9
330
E6
100
AcDbEntity
  8
Layer 1
370
    15
  0
POLYLINE
  5
EA
330
3C
100
AcDbEntity
  8
Layer 1
 62
     7
370
    15
100
AcDb2dPolyline
 66
     1
 10
0.0
 20
0.0
 30
0.0
  0
VERTEX
  5
EB
330
EA
100
AcDbEntity
  8
Layer 1
 62
     7
370
    15
100
AcDbVertex
100
AcDb2dVertex
 10
439.8041624877052
 20
56.77517359691732
 30
0.0
  0
VERTEX
  5
EC
330
EA
100
AcDbEntity
  8
Layer 1
 62
     7
370
    15
100
AcDbVertex
100
AcDb2dVertex
 10
439.8041624877052
 20
58.47291665204844
 30
0.0
  0
SEQEND
  5
ED
330
EA
100
AcDbEntity
  8
Layer 1
370
    15
  0
POLYLINE
  5
EE
330
3C
100
AcDbEntity
  8
Layer 1
 62
     7
370
    15
100
AcDb2dPolyline
 66
     1
 10
0.0
 20
0.0
 30
0.0
  0
VERTEX
  5
EF
330
EE
100
AcDbEntity
  8
Layer 1
 62
     7
370
    15
100
AcDbVertex
100
AcDb2dVertex
 10
531.804059383108
 20
56.77517359691732
 30
0.0
  0
VERTEX
  5
F0
330
EE
100
AcDbEntity
  8
Layer 1
 62
     7
370
    15
100
AcDbVertex
100
AcDb2dVertex
 10
531.804059383108
 20
58.47291665204844
 30
0.0
  0
SEQEND
  5
F1
330
EE
100
AcDbEntity
  8
Layer 1
370
    15
  0
POLYLINE
  5
F2
330
3C
100
AcDbEntity
  8
Layer 1
 62
     7
370
    15
100
AcDb2dPolyline
 66
     1
 10
0.0
 20
0.0
 30
0.0
  0
VERTEX
  5
F3
330
F2
100
AcDbEntity
  8
Layer 1
 62
     7
370
    15
100
AcDbVertex
100
AcDb2dVertex
 10
529.2949963412005
 20
56.37829859701654
 30
0.0
  0
VERTEX
  5
F4
330
F2
100
AcDbEntity
  8
Layer 1
 62
     7
370
    15
100
AcDbVertex
100
AcDb2dVertex
 10
531.804059383108
 20
56.77517359691732
 30
0.0
  0
SEQEND
  5
F5
330
F2
100
AcDbEntity
  8
Layer 1
370
    15
  0
POLYLINE
  5
F6
330
3C
100
AcDbEntity
  8
Layer 1
 62
     7
370
    15
100
AcDb2dPolyline
 66
     1
 10
0.0
 20
0.0
 30
0.0
  0
VERTEX
  5
F7
330
F6
100
AcDbEntity
  8
Layer 1
 62
     7
370
    15
100
AcDbVertex
100
AcDb2dVertex
 10
519.7389904842146
 20
56.37829859701654
 30
0.0
  0
VERTEX
  5
F8
330
F6
100
AcDbEntity
  8
Layer 1
 62
     7
370
    15
100
AcDbVertex
100
AcDb2dVertex
 10
529.2949963412005
 20
56.37829859701654
 30
0.0
  0
SEQEND
  5
F9
330
F6
100
AcDbEntity
  8
Layer 1
370
    15
  0
SPLINE
  5
FA
330
3C
100
AcDbEntity
  8
Layer 1
 62
     7
370
    15
100
AcDbSpline
210
0.0
220
0.0
230
1.0
 70
     8
 71
     3
 72
     8
 73
     4
 74
     0
 42
0.0000000001
 43
0.0000000001
 40
0.0
 40
0.0
 40
0.0
 40
0.0
 40
1.0
 40
1.0
 40
1.0
 40
1.0
 10
519.7389904842146
 20
56.37829859701654
 30
0.0
 10
519.5942964738341
 20
56.37898761611359
 30
0.0
 10
519.448568934808
 20
56.37898761611359
 30
0.0
 10
519.3038749244275
 20
56.37898761611359
 30
0.0
  0
POLYLINE
  5
FB
330
3C
100
AcDbEntity
  8
Layer 1
 62
     7
370
    15
100
AcDb2dPolyline
 66
     1
 10
0.0
 20
0.0
 30
0.0
  0
VERTEX
  5
FC
330
FB
100
AcDbEntity
  8
Layer 1
 62
     7
370
    15
100
AcDbVertex
100
AcDb2dVertex
 10
452.3043469463857
 20
56.37898761611359
 30
0.0
  0
VERTEX
  5
FD
330
FB
100
AcDbEntity
  8
Layer 1
 62
     7
370
    15
100
AcDbVertex
100
AcDb2dVertex
 10
519.3038749244275
 20
56.37898761611359
 30
0.0
  0
SEQEND
  5
FE
330
FB
100
AcDbEntity
  8
Layer 1
370
    15
  0
POLYLINE
  5
FF
330
3C
100
AcDbEntity
  8
Layer 1
 62
     7
370
    15
100
AcDb2dPolyline
 66
     1
 10
0.0
 20
0.0
 30
0.0
  0
VERTEX
  5
100
330
FF
100
AcDbEntity
  8
Layer 1
 62
     7
370
    15
100
AcDbVertex
100
AcDb2dVertex
 10
439.8041624877052
 20
56.77517359691732
 30
0.0
  0
VERTEX
  5
101
330
FF
100
AcDbEntity
  8
Layer 1
 62
     7
370
    15
100
AcDbVertex
100
AcDb2dVertex
 10
429.0883652356099
 20
58.47291665204844
 30
0.0
  0
SEQEND
  5
102
330
FF
100
AcDbEntity
  8
Layer 1
370
    15
  0
POLYLINE
  5
103
330
3C
100
AcDbEntity
  8
Layer 1
 62
     7
370
    15
100
AcDb2dPolyline
 66
     1
 10
0.0
 20
0.0
 30
0.0
  0
VERTEX
  5
104
330
103
100
AcDbEntity
  8
Layer 1
 62
     7
370
    15
100
AcDbVertex
100
AcDb2dVertex
 10
531.804059383108
 20
56.77517359691732
 30
0.0
  0
VERTEX
  5
105
330
103
100
AcDbEntity
  8
Layer 1
 62
     7
370
    15
100
AcDbVertex
100
AcDb2dVertex
 10
542.5196843804291
 20
58.47291665204844
 30
0.0
  0
SEQEND
  5
106
330
103
100
AcDbEntity
  8
Layer 1
370
    15
  0
POLYLINE
  5
107
330
3C
100
AcDbEntity
  8
Layer 1
 62
     7
370
    15
100
AcDb2dPolyline
 66
     1
 10
0.0
 20
0.0
 30
0.0
  0
VERTEX
  5
108
330
107
100
AcDbEntity
  8
Layer 1
 62
     7
370
    15
100
AcDbVertex
100
AcDb2dVertex
 10
542.5196843804291
 20
58.47291665204844
 30
0.0
  0
VERTEX
  5
109
330
107
100
AcDbEntity
  8
Layer 1
 62
     7
370
    15
100
AcDbVertex
100
AcDb2dVertex
 10
542.5196843804291
 20
58.47291665204844
 30
0.0
  0
SEQEND
  5
10A
330
107
100
AcDbEntity
  8
Layer 1
370
    15
  0
POLYLINE
  5
10B
330
3C
100
AcDbEntity
  8
Layer 1
370
     0
100
AcDb2dPolyline
 66
     1
 10
0.0
 20
0.0
 30
0.0
  0
VERTEX
  5
10C
330
10B
100
AcDbEntity
  8
Layer 1
370
     0
100
AcDbVertex
100
AcDb2dVertex
 10
100.8043551722816
 20
292.8779024875444
 30
0.0
  0
VERTEX
  5
10D
330
10B
100
AcDbEntity
  8
Layer 1
370
     0
100
AcDbVertex
100
AcDb2dVertex
 10
105.8045667595732
 20
262.8776664924403
 30
0.0
  0
VERTEX
  5
10E
330
10B
100
AcDbEntity
  8
Layer 1
370
     0
100
AcDbVertex
100
AcDb2dVertex
 10
95.80466034931273
 20
262.8776664924403
 30
0.0
  0
SEQEND
  5
10F
330
10B
100
AcDbEntity
  8
Layer 1
370
     0
  0
HATCH
  5
110
330
3C
100
AcDbEntity
  8
Layer 1
 62
     7
100
AcDbHatch
 10
0.0
 20
0.0
 30
0.0
210
0.0
220
0.0
230
1.0
  2
SOLID
 70
     1
 71
     0
 91
        1
 92
        1
 93
        3
 72
     1
 10
100.8043551722816
 20
292.8779024875444
 11
105.8045667595732
 21
262.8776664924403
 72
     1
 10
105.8045667595732
 20
262.8776664924403
 11
95.80466034931273
 21
262.8776664924403
 72
     1
 10
95.80466034931273
 20
262.8776664924403
 11
100.8043551722816
 21
292.8779024875444
 97
        0
 75
     2
 76
     1
 98
        0
  0
POLYLINE
  5
111
330
3C
100
AcDbEntity
  8
Layer 1
370
     0
100
AcDb2dPolyline
 66
     1
 10
0.0
 20
0.0
 30
0.0
  0
VERTEX
  5
112
330
111
100
AcDbEntity
  8
Layer 1
370
     0
100
AcDbVertex
100
AcDb2dVertex
 10
100.8043551722816
 20
66.37768824295419
 30
0.0
  0
VERTEX
  5
113
330
111
100
AcDbEntity
  8
Layer 1
370
     0
100
AcDbVertex
100
AcDb2dVertex
 10
95.80466034931273
 20
96.37757972850977
 30
0.0
  0
VERTEX
  5
114
330
111
100
AcDbEntity
  8
Layer 1
370
     0
100
AcDbVertex
100
AcDb2dVertex
 10
105.8045667595732
 20
96.37757972850977
 30
0.0
  0
SEQEND
  5
115
330
111
100
AcDbEntity
  8
Layer 1
370
     0
  0
HATCH
  5
116
330
3C
100
AcDbEntity
  8
Layer 1
 62
     7
100
AcDbHatch
 10
0.0
 20
0.0
 30
0.0
210
0.0
220
0.0
230
1.0
  2
SOLID
 70
     1
 71
     0
 91
        1
 92
        1
 93
        3
 72
     1
 10
100.8043551722816
 20
66.37768824295419
 11
95.80466034931273
 21
96.37757972850977
 72
     1
 10
95.80466034931273
 20
96.37757972850977
 11
105.8045667595732
 21
96.37757972850977
 72
     1
 10
105.8045667595732
 20
96.37757972850977
 11
100.8043551722816
 21
66.37768824295419
 97
        0
 75
     2
 76
     1
 98
        0
  0
POLYLINE
  5
117
330
3C
100
AcDbEntity
  8
Layer 1
 62
     7
370
    25
100
AcDb2dPolyline
 66
     1
 10
0.0
 20
0.0
 30
0.0
  0
VERTEX
  5
118
330
117
100
AcDbEntity
  8
Layer 1
 62
     7
370
    25
100
AcDbVertex
100
AcDb2dVertex
 10
230.5185736185856
 20
292.8779024875444
 30
0.0
  0
VERTEX
  5
119
330
117
100
AcDbEntity
  8
Layer 1
 62
     7
370
    25
100
AcDbVertex
100
AcDb2dVertex
 10
90.80444876202111
 20
292.8779024875444
 30
0.0
  0
SEQEND
  5
11A
330
117
100
AcDbEntity
  8
Layer 1
370
    25
  0
POLYLINE
  5
11B
330
3C
100
AcDbEntity
  8
Layer 1
 62
     7
370
    25
100
AcDb2dPolyline
 66
     1
 10
0.0
 20
0.0
 30
0.0
  0
VERTEX
  5
11C
330
11B
100
AcDbEntity
  8
Layer 1
 62
     7
370
    25
100
AcDbVertex
100
AcDb2dVertex
 10
229.9687363791398
 20
66.37768824295419
 30
0.0
  0
VERTEX
  5
11D
330
11B
100
AcDbEntity
  8
Layer 1
 62
     7
370
    25
100
AcDbVertex
100
AcDb2dVertex
 10
90.80444876202111
 20
66.37768824295419
 30
0.0
  0
SEQEND
  5
11E
330
11B
100
AcDbEntity
  8
Layer 1
370
    25
  0
POLYLINE
  5
11F
330
3C
100
AcDbEntity
  8
Layer 1
 62
     7
370
    25
100
AcDb2dPolyline
 66
     1
 10
0.0
 20
0.0
 30
0.0
  0
VERTEX
  5
120
330
11F
100
AcDbEntity
  8
Layer 1
 62
     7
370
    25
100
AcDbVertex
100
AcDb2dVertex
 10
100.8043551722816
 20
292.8779024875444
 30
0.0
  0
VERTEX
  5
121
330
11F
100
AcDbEntity
  8
Layer 1
 62
     7
370
    25
100
AcDbVertex
100
AcDb2dVertex
 10
100.8043551722816
 20
66.37768824295419
 30
0.0
  0
SEQEND
  5
122
330
11F
100
AcDbEntity
  8
Layer 1
370
    25
  0
POLYLINE
  5
123
330
3C
100
AcDbEntity
  8
Layer 1
 62
     7
370
    25
100
AcDb2dPolyline
 66
     1
 10
0.0
 20
0.0
 30
0.0
  0
VERTEX
  5
124
330
123
100
AcDbEntity
  8
Layer 1
 62
     7
370
    25
100
AcDbVertex
100
AcDb2dVertex
 10
53.2895982397158
 20
115.5398898365664
 30
0.0
  0
VERTEX
  5
125
330
123
100
AcDbEntity
  8
Layer 1
 62
     7
370
    25
100
AcDbVertex
100
AcDb2dVertex
 10
46.23421494069839
 20
120.8315565019102
 30
0.0
  0
SEQEND
  5
126
330
123
100
AcDbEntity
  8
Layer 1
370
    25
  0
POLYLINE
  5
127
330
3C
100
AcDbEntity
  8
Layer 1
 62
     7
370
    25
100
AcDb2dPolyline
 66
     1
 10
0.0
 20
0.0
 30
0.0
  0
VERTEX
  5
128
330
127
100
AcDbEntity
  8
Layer 1
 62
     7
370
    25
100
AcDbVertex
100
AcDb2dVertex
 10
46.23421494069839
 20
120.8315565019102
 30
0.0
  0
VERTEX
  5
129
330
127
100
AcDbEntity
  8
Layer 1
 62
     7
370
    25
100
AcDbVertex
100
AcDb2dVertex
 10
46.23421494069839
 20
131.4148898325977
 30
0.0
  0
SEQEND
  5
12A
330
127
100
AcDbEntity
  8
Layer 1
370
    25
  0
POLYLINE
  5
12B
330
3C
100
AcDbEntity
  8
Layer 1
 62
     7
370
    25
100
AcDb2dPolyline
 66
     1
 10
0.0
 20
0.0
 30
0.0
  0
VERTEX
  5
12C
330
12B
100
AcDbEntity
  8
Layer 1
 62
     7
370
    25
100
AcDbVertex
100
AcDb2dVertex
 10
46.23421494069839
 20
131.4148898325977
 30
0.0
  0
VERTEX
  5
12D
330
12B
100
AcDbEntity
  8
Layer 1
 62
     7
370
    25
100
AcDbVertex
100
AcDb2dVertex
 10
53.2895982397158
 20
136.7065564979414
 30
0.0
  0
SEQEND
  5
12E
330
12B
100
AcDbEntity
  8
Layer 1
370
    25
  0
POLYLINE
  5
12F
330
3C
100
AcDbEntity
  8
Layer 1
 62
     7
370
    25
100
AcDb2dPolyline
 66
     1
 10
0.0
 20
0.0
 30
0.0
  0
VERTEX
  5
130
330
12F
100
AcDbEntity
  8
Layer 1
 62
     7
370
    25
100
AcDbVertex
100
AcDb2dVertex
 10
53.2895982397158
 20
136.7065564979414
 30
0.0
  0
VERTEX
  5
131
330
12F
100
AcDbEntity
  8
Layer 1
 62
     7
370
    25
100
AcDbVertex
100
AcDb2dVertex
 10
60.34532604828173
 20
136.7065564979414
 30
0.0
  0
SEQEND
  5
132
330
12F
100
AcDbEntity
  8
Layer 1
370
    25
  0
POLYLINE
  5
133
330
3C
100
AcDbEntity
  8
Layer 1
 62
     7
370
    25
100
AcDb2dPolyline
 66
     1
 10
0.0
 20
0.0
 30
0.0
  0
VERTEX
  5
134
330
133
100
AcDbEntity
  8
Layer 1
 62
     7
370
    25
100
AcDbVertex
100
AcDb2dVertex
 10
60.34532604828173
 20
136.7065564979414
 30
0.0
  0
VERTEX
  5
135
330
133
100
AcDbEntity
  8
Layer 1
 62
     7
370
    25
100
AcDbVertex
100
AcDb2dVertex
 10
67.40070934729913
 20
131.4148898325977
 30
0.0
  0
SEQEND
  5
136
330
133
100
AcDbEntity
  8
Layer 1
370
    25
  0
POLYLINE
  5
137
330
3C
100
AcDbEntity
  8
Layer 1
 62
     7
370
    25
100
AcDb2dPolyline
 66
     1
 10
0.0
 20
0.0
 30
0.0
  0
VERTEX
  5
138
330
137
100
AcDbEntity
  8
Layer 1
 62
     7
370
    25
100
AcDbVertex
100
AcDb2dVertex
 10
67.40070934729913
 20
131.4148898325977
 30
0.0
  0
VERTEX
  5
139
330
137
100
AcDbEntity
  8
Layer 1
 62
     7
370
    25
100
AcDbVertex
100
AcDb2dVertex
 10
67.40070934729913
 20
120.8315565019102
 30
0.0
  0
SEQEND
  5
13A
330
137
100
AcDbEntity
  8
Layer 1
370
    25
  0
POLYLINE
  5
13B
330
3C
100
AcDbEntity
  8
Layer 1
 62
     7
370
    25
100
AcDb2dPolyline
 66
     1
 10
0.0
 20
0.0
 30
0.0
  0
VERTEX
  5
13C
330
13B
100
AcDbEntity
  8
Layer 1
 62
     7
370
    25
100
AcDbVertex
100
AcDb2dVertex
 10
67.40070934729913
 20
120.8315565019102
 30
0.0
  0
VERTEX
  5
13D
330
13B
100
AcDbEntity
  8
Layer 1
 62
     7
370
    25
100
AcDbVertex
100
AcDb2dVertex
 10
74.45643715586506
 20
115.5398898365664
 30
0.0
  0
SEQEND
  5
13E
330
13B
100
AcDbEntity
  8
Layer 1
370
    25
  0
POLYLINE
  5
13F
330
3C
100
AcDbEntity
  8
Layer 1
 62
     7
370
    25
100
AcDb2dPolyline
 66
     1
 10
0.0
 20
0.0
 30
0.0
  0
VERTEX
  5
140
330
13F
100
AcDbEntity
  8
Layer 1
 62
     7
370
    25
100
AcDbVertex
100
AcDb2dVertex
 10
74.45643715586506
 20
115.5398898365664
 30
0.0
  0
VERTEX
  5
141
330
13F
100
AcDbEntity
  8
Layer 1
 62
     7
370
    25
100
AcDbVertex
100
AcDb2dVertex
 10
88.5670314991256
 20
115.5398898365664
 30
0.0
  0
SEQEND
  5
142
330
13F
100
AcDbEntity
  8
Layer 1
370
    25
  0
POLYLINE
  5
143
330
3C
100
AcDbEntity
  8
Layer 1
 62
     7
370
    25
100
AcDb2dPolyline
 66
     1
 10
0.0
 20
0.0
 30
0.0
  0
VERTEX
  5
144
330
143
100
AcDbEntity
  8
Layer 1
 62
     7
370
    25
100
AcDbVertex
100
AcDb2dVertex
 10
88.5670314991256
 20
115.5398898365664
 30
0.0
  0
VERTEX
  5
145
330
143
100
AcDbEntity
  8
Layer 1
 62
     7
370
    25
100
AcDbVertex
100
AcDb2dVertex
 10
88.5670314991256
 20
136.7065564979414
 30
0.0
  0
SEQEND
  5
146
330
143
100
AcDbEntity
  8
Layer 1
370
    25
  0
POLYLINE
  5
147
330
3C
100
AcDbEntity
  8
Layer 1
 62
     7
370
    25
100
AcDb2dPolyline
 66
     1
 10
0.0
 20
0.0
 30
0.0
  0
VERTEX
  5
148
330
147
100
AcDbEntity
  8
Layer 1
 62
     7
370
    25
100
AcDbVertex
100
AcDb2dVertex
 10
53.2895982397158
 20
147.2902343381774
 30
0.0
  0
VERTEX
  5
149
330
147
100
AcDbEntity
  8
Layer 1
 62
     7
370
    25
100
AcDbVertex
100
AcDb2dVertex
 10
46.23421494069839
 20
152.5819010035212
 30
0.0
  0
SEQEND
  5
14A
330
147
100
AcDbEntity
  8
Layer 1
370
    25
  0
POLYLINE
  5
14B
330
3C
100
AcDbEntity
  8
Layer 1
 62
     7
370
    25
100
AcDb2dPolyline
 66
     1
 10
0.0
 20
0.0
 30
0.0
  0
VERTEX
  5
14C
330
14B
100
AcDbEntity
  8
Layer 1
 62
     7
370
    25
100
AcDbVertex
100
AcDb2dVertex
 10
46.23421494069839
 20
152.5819010035212
 30
0.0
  0
VERTEX
  5
14D
330
14B
100
AcDbEntity
  8
Layer 1
 62
     7
370
    25
100
AcDbVertex
100
AcDb2dVertex
 10
46.23421494069839
 20
163.1645453151116
 30
0.0
  0
SEQEND
  5
14E
330
14B
100
AcDbEntity
  8
Layer 1
370
    25
  0
POLYLINE
  5
14F
330
3C
100
AcDbEntity
  8
Layer 1
 62
     7
370
    25
100
AcDb2dPolyline
 66
     1
 10
0.0
 20
0.0
 30
0.0
  0
VERTEX
  5
150
330
14F
100
AcDbEntity
  8
Layer 1
 62
     7
370
    25
100
AcDbVertex
100
AcDb2dVertex
 10
46.23421494069839
 20
163.1645453151116
 30
0.0
  0
VERTEX
  5
151
330
14F
100
AcDbEntity
  8
Layer 1
 62
     7
370
    25
100
AcDbVertex
100
AcDb2dVertex
 10
53.2895982397158
 20
168.4562119804554
 30
0.0
  0
SEQEND
  5
152
330
14F
100
AcDbEntity
  8
Layer 1
370
    25
  0
POLYLINE
  5
153
330
3C
100
AcDbEntity
  8
Layer 1
 62
     7
370
    25
100
AcDb2dPolyline
 66
     1
 10
0.0
 20
0.0
 30
0.0
  0
VERTEX
  5
154
330
153
100
AcDbEntity
  8
Layer 1
 62
     7
370
    25
100
AcDbVertex
100
AcDb2dVertex
 10
53.2895982397158
 20
168.4562119804554
 30
0.0
  0
VERTEX
  5
155
330
153
100
AcDbEntity
  8
Layer 1
 62
     7
370
    25
100
AcDbVertex
100
AcDb2dVertex
 10
60.34532604828173
 20
168.4562119804554
 30
0.0
  0
SEQEND
  5
156
330
153
100
AcDbEntity
  8
Layer 1
370
    25
  0
POLYLINE
  5
157
330
3C
100
AcDbEntity
  8
Layer 1
 62
     7
370
    25
100
AcDb2dPolyline
 66
     1
 10
0.0
 20
0.0
 30
0.0
  0
VERTEX
  5
158
330
157
100
AcDbEntity
  8
Layer 1
 62
     7
370
    25
100
AcDbVertex
100
AcDb2dVertex
 10
60.34532604828173
 20
168.4562119804554
 30
0.0
  0
VERTEX
  5
159
330
157
100
AcDbEntity
  8
Layer 1
 62
     7
370
    25
100
AcDbVertex
100
AcDb2dVertex
 10
67.40070934729913
 20
163.1645453151116
 30
0.0
  0
SEQEND
  5
15A
330
157
100
AcDbEntity
  8
Layer 1
370
    25
  0
POLYLINE
  5
15B
330
3C
100
AcDbEntity
  8
Layer 1
 62
     7
370
    25
100
AcDb2dPolyline
 66
     1
 10
0.0
 20
0.0
 30
0.0
  0
VERTEX
  5
15C
330
15B
100
AcDbEntity
  8
Layer 1
 62
     7
370
    25
100
AcDbVertex
100
AcDb2dVertex
 10
67.40070934729913
 20
163.1645453151116
 30
0.0
  0
VERTEX
  5
15D
330
15B
100
AcDbEntity
  8
Layer 1
 62
     7
370
    25
100
AcDbVertex
100
AcDb2dVertex
 10
67.40070934729913
 20
152.5819010035212
 30
0.0
  0
SEQEND
  5
15E
330
15B
100
AcDbEntity
  8
Layer 1
370
    25
  0
POLYLINE
  5
15F
330
3C
100
AcDbEntity
  8
Layer 1
 62
     7
370
    25
100
AcDb2dPolyline
 66
     1
 10
0.0
 20
0.0
 30
0.0
  0
VERTEX
  5
160
330
15F
100
AcDbEntity
  8
Layer 1
 62
     7
370
    25
100
AcDbVertex
100
AcDb2dVertex
 10
67.40070934729913
 20
152.5819010035212
 30
0.0
  0
VERTEX
  5
161
330
15F
100
AcDbEntity
  8
Layer 1
 62
     7
370
    25
100
AcDbVertex
100
AcDb2dVertex
 10
74.45643715586506
 20
147.2902343381774
 30
0.0
  0
SEQEND
  5
162
330
15F
100
AcDbEntity
  8
Layer 1
370
    25
  0
POLYLINE
  5
163
330
3C
100
AcDbEntity
  8
Layer 1
 62
     7
370
    25
100
AcDb2dPolyline
 66
     1
 10
0.0
 20
0.0
 30
0.0
  0
VERTEX
  5
164
330
163
100
AcDbEntity
  8
Layer 1
 62
     7
370
    25
100
AcDbVertex
100
AcDb2dVertex
 10
74.45643715586506
 20
147.2902343381774
 30
0.0
  0
VERTEX
  5
165
330
163
100
AcDbEntity
  8
Layer 1
 62
     7
370
    25
100
AcDbVertex
100
AcDb2dVertex
 10
88.5670314991256
 20
147.2902343381774
 30
0.0
  0
SEQEND
  5
166
330
163
100
AcDbEntity
  8
Layer 1
370
    25
  0
POLYLINE
  5
167
330
3C
100
AcDbEntity
  8
Layer 1
 62
     7
370
    25
100
AcDb2dPolyline
 66
     1
 10
0.0
 20
0.0
 30
0.0
  0
VERTEX
  5
168
330
167
100
AcDbEntity
  8
Layer 1
 62
     7
370
    25
100
AcDbVertex
100
AcDb2dVertex
 10
88.5670314991256
 20
147.2902343381774
 30
0.0
  0
VERTEX
  5
169
330
167
100
AcDbEntity
  8
Layer 1
 62
     7
370
    25
100
AcDbVertex
100
AcDb2dVertex
 10
88.5670314991256
 20
168.4562119804554
 30
0.0
  0
SEQEND
  5
16A
330
167
100
AcDbEntity
  8
Layer 1
370
    25
  0
POLYLINE
  5
16B
330
3C
100
AcDbEntity
  8
Layer 1
 62
     7
370
    25
100
AcDb2dPolyline
 66
     1
 10
0.0
 20
0.0
 30
0.0
  0
VERTEX
  5
16C
330
16B
100
AcDbEntity
  8
Layer 1
 62
     7
370
    25
100
AcDbVertex
100
AcDb2dVertex
 10
81.51182045488247
 20
179.0395453111429
 30
0.0
  0
VERTEX
  5
16D
330
16B
100
AcDbEntity
  8
Layer 1
 62
     7
370
    25
100
AcDbVertex
100
AcDb2dVertex
 10
88.5670314991256
 20
184.3312119764867
 30
0.0
  0
SEQEND
  5
16E
330
16B
100
AcDbEntity
  8
Layer 1
370
    25
  0
POLYLINE
  5
16F
330
3C
100
AcDbEntity
  8
Layer 1
 62
     7
370
    25
100
AcDb2dPolyline
 66
     1
 10
0.0
 20
0.0
 30
0.0
  0
VERTEX
  5
170
330
16F
100
AcDbEntity
  8
Layer 1
 62
     7
370
    25
100
AcDbVertex
100
AcDb2dVertex
 10
88.5670314991256
 20
184.3312119764867
 30
0.0
  0
VERTEX
  5
171
330
16F
100
AcDbEntity
  8
Layer 1
 62
     7
370
    25
100
AcDbVertex
100
AcDb2dVertex
 10
88.5670314991256
 20
194.9148898167227
 30
0.0
  0
SEQEND
  5
172
330
16F
100
AcDbEntity
  8
Layer 1
370
    25
  0
POLYLINE
  5
173
330
3C
100
AcDbEntity
  8
Layer 1
 62
     7
370
    25
100
AcDb2dPolyline
 66
     1
 10
0.0
 20
0.0
 30
0.0
  0
VERTEX
  5
174
330
173
100
AcDbEntity
  8
Layer 1
 62
     7
370
    25
100
AcDbVertex
100
AcDb2dVertex
 10
88.5670314991256
 20
194.9148898167227
 30
0.0
  0
VERTEX
  5
175
330
173
100
AcDbEntity
  8
Layer 1
 62
     7
370
    25
100
AcDbVertex
100
AcDb2dVertex
 10
81.51182045488247
 20
200.2065564820664
 30
0.0
  0
SEQEND
  5
176
330
173
100
AcDbEntity
  8
Layer 1
370
    25
  0
POLYLINE
  5
177
330
3C
100
AcDbEntity
  8
Layer 1
 62
     7
370
    25
100
AcDb2dPolyline
 66
     1
 10
0.0
 20
0.0
 30
0.0
  0
VERTEX
  5
178
330
177
100
AcDbEntity
  8
Layer 1
 62
     7
370
    25
100
AcDbVertex
100
AcDb2dVertex
 10
81.51182045488247
 20
200.2065564820664
 30
0.0
  0
VERTEX
  5
179
330
177
100
AcDbEntity
  8
Layer 1
 62
     7
370
    25
100
AcDbVertex
100
AcDb2dVertex
 10
67.40070934729913
 20
200.2065564820664
 30
0.0
  0
SEQEND
  5
17A
330
177
100
AcDbEntity
  8
Layer 1
370
    25
  0
POLYLINE
  5
17B
330
3C
100
AcDbEntity
  8
Layer 1
 62
     7
370
    25
100
AcDb2dPolyline
 66
     1
 10
0.0
 20
0.0
 30
0.0
  0
VERTEX
  5
17C
330
17B
100
AcDbEntity
  8
Layer 1
 62
     7
370
    25
100
AcDbVertex
100
AcDb2dVertex
 10
67.40070934729913
 20
200.2065564820664
 30
0.0
  0
VERTEX
  5
17D
330
17B
100
AcDbEntity
  8
Layer 1
 62
     7
370
    25
100
AcDbVertex
100
AcDb2dVertex
 10
60.34532604828173
 20
194.9148898167227
 30
0.0
  0
SEQEND
  5
17E
330
17B
100
AcDbEntity
  8
Layer 1
370
    25
  0
POLYLINE
  5
17F
330
3C
100
AcDbEntity
  8
Layer 1
 62
     7
370
    25
100
AcDb2dPolyline
 66
     1
 10
0.0
 20
0.0
 30
0.0
  0
VERTEX
  5
180
330
17F
100
AcDbEntity
  8
Layer 1
 62
     7
370
    25
100
AcDbVertex
100
AcDb2dVertex
 10
60.34532604828173
 20
194.9148898167227
 30
0.0
  0
VERTEX
  5
181
330
17F
100
AcDbEntity
  8
Layer 1
 62
     7
370
    25
100
AcDbVertex
100
AcDb2dVertex
 10
60.34532604828173
 20
179.0395453111429
 30
0.0
  0
SEQEND
  5
182
330
17F
100
AcDbEntity
  8
Layer 1
370
    25
  0
POLYLINE
  5
183
330
3C
100
AcDbEntity
  8
Layer 1
 62
     7
370
    25
100
AcDb2dPolyline
 66
     1
 10
0.0
 20
0.0
 30
0.0
  0
VERTEX
  5
184
330
183
100
AcDbEntity
  8
Layer 1
 62
     7
370
    25
100
AcDbVertex
100
AcDb2dVertex
 10
60.34532604828173
 20
179.0395453111429
 30
0.0
  0
VERTEX
  5
185
330
183
100
AcDbEntity
  8
Layer 1
 62
     7
370
    25
100
AcDbVertex
100
AcDb2dVertex
 10
46.23421494069839
 20
179.0395453111429
 30
0.0
  0
SEQEND
  5
186
330
183
100
AcDbEntity
  8
Layer 1
370
    25
  0
POLYLINE
  5
187
330
3C
100
AcDbEntity
  8
Layer 1
 62
     7
370
    25
100
AcDb2dPolyline
 66
     1
 10
0.0
 20
0.0
 30
0.0
  0
VERTEX
  5
188
330
187
100
AcDbEntity
  8
Layer 1
 62
     7
370
    25
100
AcDbVertex
100
AcDb2dVertex
 10
46.23421494069839
 20
179.0395453111429
 30
0.0
  0
VERTEX
  5
189
330
187
100
AcDbEntity
  8
Layer 1
 62
     7
370
    25
100
AcDbVertex
100
AcDb2dVertex
 10
46.23421494069839
 20
200.2065564820664
 30
0.0
  0
SEQEND
  5
18A
330
187
100
AcDbEntity
  8
Layer 1
370
    25
  0
POLYLINE
  5
18B
330
3C
100
AcDbEntity
  8
Layer 1
 62
     7
370
    15
100
AcDb2dPolyline
 66
     1
 10
0.0
 20
0.0
 30
0.0
  0
VERTEX
  5
18C
330
18B
100
AcDbEntity
  8
Layer 1
 62
     7
370
    15
100
AcDbVertex
100
AcDb2dVertex
 10
700.8040796859101
 20
545.466102294189
 30
0.0
  0
VERTEX
  5
18D
330
18B
100
AcDbEntity
  8
Layer 1
 62
     7
370
    15
100
AcDbVertex
100
AcDb2dVertex
 10
700.8040796859101
 20
1030.46578343379
 30
0.0
  0
SEQEND
  5
18E
330
18B
100
AcDbEntity
  8
Layer 1
370
    15
  0
SPLINE
  5
18F
330
3C
100
AcDbEntity
  8
Layer 1
 62
     7
370
    15
100
AcDbSpline
210
0.0
220
0.0
230
1.0
 70
     8
 71
     3
 72
     8
 73
     4
 74
     0
 42
0.0000000001
 43
0.0000000001
 40
0.0
 40
0.0
 40
0.0
 40
0.0
 40
1.0
 40
1.0
 40
1.0
 40
1.0
 10
690.803656511327
 20
535.4663681387029
 30
0.0
 10
696.3268335932794
 20
535.4663681387029
 30
0.0
 10
700.8040796859101
 20
539.943269721785
 30
0.0
 10
700.8040796859101
 20
545.466102294189
 30
0.0
  0
POLYLINE
  5
190
330
3C
100
AcDbEntity
  8
Layer 1
 62
     7
370
    15
100
AcDb2dPolyline
 66
     1
 10
0.0
 20
0.0
 30
0.0
  0
VERTEX
  5
191
330
190
100
AcDbEntity
  8
Layer 1
 62
     7
370
    15
100
AcDbVertex
100
AcDb2dVertex
 10
280.8043931047121
 20
535.4663681387029
 30
0.0
  0
VERTEX
  5
192
330
190
100
AcDbEntity
  8
Layer 1
 62
     7
370
    15
100
AcDbVertex
100
AcDb2dVertex
 10
690.803656511327
 20
535.4663681387029
 30
0.0
  0
SEQEND
  5
193
330
190
100
AcDbEntity
  8
Layer 1
370
    15
  0
SPLINE
  5
194
330
3C
100
AcDbEntity
  8
Layer 1
 62
     7
370
    15
100
AcDbSpline
210
0.0
220
0.0
230
1.0
 70
     8
 71
     3
 72
     8
 73
     4
 74
     0
 42
0.0000000001
 43
0.0000000001
 40
0.0
 40
0.0
 40
0.0
 40
0.0
 40
1.0
 40
1.0
 40
1.0
 40
1.0
 10
270.8041421849031
 20
545.466102294189
 30
0.0
 10
270.8041421849031
 20
539.943269721785
 30
0.0
 10
275.2813882775338
 20
535.4663681387029
 30
0.0
 10
280.8043931047121
 20
535.4663681387029
 30
0.0
  0
POLYLINE
  5
195
330
3C
100
AcDbEntity
  8
Layer 1
 62
     7
370
    15
100
AcDb2dPolyline
 66
     1
 10
0.0
 20
0.0
 30
0.0
  0
VERTEX
  5
196
330
195
100
AcDbEntity
  8
Layer 1
 62
     7
370
    15
100
AcDbVertex
100
AcDb2dVertex
 10
270.8041421849031
 20
1030.46578343379
 30
0.0
  0
VERTEX
  5
197
330
195
100
AcDbEntity
  8
Layer 1
 62
     7
370
    15
100
AcDbVertex
100
AcDb2dVertex
 10
270.8041421849031
 20
545.466102294189
 30
0.0
  0
SEQEND
  5
198
330
195
100
AcDbEntity
  8
Layer 1
370
    15
  0
SPLINE
  5
199
330
3C
100
AcDbEntity
  8
Layer 1
 62
     7
370
    15
100
AcDbSpline
210
0.0
220
0.0
230
1.0
 70
    11
 71
     3
 72
    17
 73
    13
 74
     0
 42
0.0000000001
 43
0.0000000001
 40
0.0
 40
0.0
 40
0.0
 40
0.0
 40
1.0
 40
1.0
 40
1.0
 40
2.0
 40
2.0
 40
2.0
 40
3.0
 40
3.0
 40
3.0
 40
4.0
 40
4.0
 40
4.0
 40
4.0
 10
468.304059398983
 20
1002.965653232332
 30
0.0
 10
468.304059398983
 20
993.3006101032374
 30
0.0
 10
476.1388955515382
 20
985.4657739506822
 30
0.0
 10
485.8041109354066
 20
985.4657739506822
 30
0.0
 10
495.4689818097265
 20
985.4657739506822
 30
0.0
 10
503.3038179622817
 20
993.3006101032374
 30
0.0
 10
503.3038179622817
 20
1002.965653232332
 30
0.0
 10
503.3038179622817
 20
1012.630696361426
 30
0.0
 10
495.4689818097265
 20
1020.465877023529
 30
0.0
 10
485.8041109354066
 20
1020.465877023529
 30
0.0
 10
476.1388955515382
 20
1020.465877023529
 30
0.0
 10
468.304059398983
 20
1012.630696361426
 30
0.0
 10
468.304059398983
 20
1002.965653232332
 30
0.0
  0
SPLINE
  5
19A
330
3C
100
AcDbEntity
  8
Layer 1
 62
     7
370
    15
100
AcDbSpline
210
0.0
220
0.0
230
1.0
 70
     8
 71
     3
 72
     8
 73
     4
 74
     0
 42
0.0000000001
 43
0.0000000001
 40
0.0
 40
0.0
 40
0.0
 40
0.0
 40
1.0
 40
1.0
 40
1.0
 40
1.0
 10
280.8043931047121
 20
1040.46568984405
 30
0.0
 10
275.2813882775338
 20
1040.46568984405
 30
0.0
 10
270.8041421849031
 20
1035.988271496645
 30
0.0
 10
270.8041421849031
 20
1030.46578343379
 30
0.0
  0
POLYLINE
  5
19B
330
3C
100
AcDbEntity
  8
Layer 1
 62
     7
370
    15
100
AcDb2dPolyline
 66
     1
 10
0.0
 20
0.0
 30
0.0
  0
VERTEX
  5
19C
330
19B
100
AcDbEntity
  8
Layer 1
 62
     7
370
    15
100
AcDbVertex
100
AcDb2dVertex
 10
690.803656511327
 20
1040.46568984405
 30
0.0
  0
VERTEX
  5
19D
330
19B
100
AcDbEntity
  8
Layer 1
 62
     7
370
    15
100
AcDbVertex
100
AcDb2dVertex
 10
280.8043931047121
 20
1040.46568984405
 30
0.0
  0
SEQEND
  5
19E
330
19B
100
AcDbEntity
  8
Layer 1
370
    15
  0
SPLINE
  5
19F
330
3C
100
AcDbEntity
  8
Layer 1
 62
     7
370
    15
100
AcDbSpline
210
0.0
220
0.0
230
1.0
 70
     8
 71
     3
 72
     8
 73
     4
 74
     0
 42
0.0000000001
 43
0.0000000001
 40
0.0
 40
0.0
 40
0.0
 40
0.0
 40
1.0
 40
1.0
 40
1.0
 40
1.0
 10
700.8040796859101
 20
1030.46578343379
 30
0.0
 10
700.8040796859101
 20
1035.988271496645
 30
0.0
 10
696.3268335932794
 20
1040.46568984405
 30
0.0
 10
690.803656511327
 20
1040.46568984405
 30
0.0
  0
SPLINE
  5
1A0
330
3C
100
AcDbEntity
  8
Layer 1
 62
     7
370
    15
100
AcDbSpline
210
0.0
220
0.0
230
1.0
 70
     8
 71
     3
 72
     8
 73
     4
 74
     0
 42
0.0000000001
 43
0.0000000001
 40
0.0
 40
0.0
 40
0.0
 40
0.0
 40
1.0
 40
1.0
 40
1.0
 40
1.0
 10
305.8044175125246
 20
965.4656166206128
 30
0.0
 10
300.2814126853463
 20
965.4656166206128
 30
0.0
 10
295.8045111022641
 20
960.9887150375306
 30
0.0
 10
295.8045111022641
 20
955.4657102103523
 30
0.0
  0
POLYLINE
  5
1A1
330
3C
100
AcDbEntity
  8
Layer 1
 62
     7
370
    15
100
AcDb2dPolyline
 66
     1
 10
0.0
 20
0.0
 30
0.0
  0
VERTEX
  5
1A2
330
1A1
100
AcDbEntity
  8
Layer 1
 62
     7
370
    15
100
AcDbVertex
100
AcDb2dVertex
 10
665.8039766130629
 20
965.4656166206128
 30
0.0
  0
VERTEX
  5
1A3
330
1A1
100
AcDbEntity
  8
Layer 1
 62
     7
370
    15
100
AcDbVertex
100
AcDb2dVertex
 10
305.8044175125246
 20
965.4656166206128
 30
0.0
  0
SEQEND
  5
1A4
330
1A1
100
AcDbEntity
  8
Layer 1
370
    15
  0
SPLINE
  5
1A5
330
3C
100
AcDbEntity
  8
Layer 1
 62
     7
370
    15
100
AcDbSpline
210
0.0
220
0.0
230
1.0
 70
     8
 71
     3
 72
     8
 73
     4
 74
     0
 42
0.0000000001
 43
0.0000000001
 40
0.0
 40
0.0
 40
0.0
 40
0.0
 40
1.0
 40
1.0
 40
1.0
 40
1.0
 10
675.8037107685491
 20
955.4657102103523
 30
0.0
 10
675.8037107685491
 20
960.9887150375306
 30
0.0
 10
671.3271536950155
 20
965.4656166206128
 30
0.0
 10
665.8039766130629
 20
965.4656166206128
 30
0.0
  0
POLYLINE
  5
1A6
330
3C
100
AcDbEntity
  8
Layer 1
 62
     7
370
    15
100
AcDb2dPolyline
 66
     1
 10
0.0
 20
0.0
 30
0.0
  0
VERTEX
  5
1A7
330
1A6
100
AcDbEntity
  8
Layer 1
 62
     7
370
    15
100
AcDbVertex
100
AcDb2dVertex
 10
675.8037107685491
 20
570.4661267020016
 30
0.0
  0
VERTEX
  5
1A8
330
1A6
100
AcDbEntity
  8
Layer 1
 62
     7
370
    15
100
AcDbVertex
100
AcDb2dVertex
 10
675.8037107685491
 20
955.4657102103523
 30
0.0
  0
SEQEND
  5
1A9
330
1A6
100
AcDbEntity
  8
Layer 1
370
    15
  0
POLYLINE
  5
1AA
330
3C
100
AcDbEntity
  8
Layer 1
 62
     7
370
    15
100
AcDb2dPolyline
 66
     1
 10
0.0
 20
0.0
 30
0.0
  0
VERTEX
  5
1AB
330
1AA
100
AcDbEntity
  8
Layer 1
 62
     7
370
    15
100
AcDbVertex
100
AcDb2dVertex
 10
295.8045111022641
 20
955.4657102103523
 30
0.0
  0
VERTEX
  5
1AC
330
1AA
100
AcDbEntity
  8
Layer 1
 62
     7
370
    15
100
AcDbVertex
100
AcDb2dVertex
 10
295.8045111022641
 20
570.4661267020016
 30
0.0
  0
SEQEND
  5
1AD
330
1AA
100
AcDbEntity
  8
Layer 1
370
    15
  0
SPLINE
  5
1AE
330
3C
100
AcDbEntity
  8
Layer 1
 62
     7
370
    15
100
AcDbSpline
210
0.0
220
0.0
230
1.0
 70
     8
 71
     3
 72
     8
 73
     4
 74
     0
 42
0.0000000001
 43
0.0000000001
 40
0.0
 40
0.0
 40
0.0
 40
0.0
 40
1.0
 40
1.0
 40
1.0
 40
1.0
 10
295.8045111022641
 20
570.4661267020016
 30
0.0
 10
295.8045111022641
 20
564.9436386391461
 30
0.0
 10
300.2814126853463
 20
560.4660480369669
 30
0.0
 10
305.8044175125246
 20
560.4660480369669
 30
0.0
  0
SPLINE
  5
1AF
330
3C
100
AcDbEntity
  8
Layer 1
 62
     7
370
    15
100
AcDbSpline
210
0.0
220
0.0
230
1.0
 70
     8
 71
     3
 72
     8
 73
     4
 74
     0
 42
0.0000000001
 43
0.0000000001
 40
0.0
 40
0.0
 40
0.0
 40
0.0
 40
1.0
 40
1.0
 40
1.0
 40
1.0
 10
665.8039766130629
 20
560.4660480369669
 30
0.0
 10
671.3271536950155
 20
560.4660480369669
 30
0.0
 10
675.8037107685491
 20
564.9436386391461
 30
0.0
 10
675.8037107685491
 20
570.4661267020016
 30
0.0
  0
POLYLINE
  5
1B0
330
3C
100
AcDbEntity
  8
Layer 1
 62
     7
370
    15
100
AcDb2dPolyline
 66
     1
 10
0.0
 20
0.0
 30
0.0
  0
VERTEX
  5
1B1
330
1B0
100
AcDbEntity
  8
Layer 1
 62
     7
370
    15
100
AcDbVertex
100
AcDb2dVertex
 10
305.8044175125246
 20
560.4660480369669
 30
0.0
  0
VERTEX
  5
1B2
330
1B0
100
AcDbEntity
  8
Layer 1
 62
     7
370
    15
100
AcDbVertex
100
AcDb2dVertex
 10
665.8039766130629
 20
560.4660480369669
 30
0.0
  0
SEQEND
  5
1B3
330
1B0
100
AcDbEntity
  8
Layer 1
370
    15
  0
POLYLINE
  5
1B4
330
3C
100
AcDbEntity
  8
Layer 1
 62
     7
370
    15
100
AcDb2dPolyline
 66
     1
 10
0.0
 20
0.0
 30
0.0
  0
VERTEX
  5
1B5
330
1B4
100
AcDbEntity
  8
Layer 1
 62
     7
370
    15
100
AcDbVertex
100
AcDb2dVertex
 10
665.8039766130629
 20
965.4656166206128
 30
0.0
  0
VERTEX
  5
1B6
330
1B4
100
AcDbEntity
  8
Layer 1
 62
     7
370
    15
100
AcDbVertex
100
AcDb2dVertex
 10
665.8039766130629
 20
955.4657102103523
 30
0.0
  0
SEQEND
  5
1B7
330
1B4
100
AcDbEntity
  8
Layer 1
370
    15
  0
POLYLINE
  5
1B8
330
3C
100
AcDbEntity
  8
Layer 1
 62
     7
370
    15
100
AcDb2dPolyline
 66
     1
 10
0.0
 20
0.0
 30
0.0
  0
VERTEX
  5
1B9
330
1B8
100
AcDbEntity
  8
Layer 1
 62
     7
370
    15
100
AcDbVertex
100
AcDb2dVertex
 10
665.8039766130629
 20
955.4657102103523
 30
0.0
  0
VERTEX
  5
1BA
330
1B8
100
AcDbEntity
  8
Layer 1
 62
     7
370
    15
100
AcDbVertex
100
AcDb2dVertex
 10
675.8037107685491
 20
955.4657102103523
 30
0.0
  0
SEQEND
  5
1BB
330
1B8
100
AcDbEntity
  8
Layer 1
370
    15
  0
POLYLINE
  5
1BC
330
3C
100
AcDbEntity
  8
Layer 1
 62
     7
370
    15
100
AcDb2dPolyline
 66
     1
 10
0.0
 20
0.0
 30
0.0
  0
VERTEX
  5
1BD
330
1BC
100
AcDbEntity
  8
Layer 1
 62
     7
370
    15
100
AcDbVertex
100
AcDb2dVertex
 10
305.8044175125246
 20
965.4656166206128
 30
0.0
  0
VERTEX
  5
1BE
330
1BC
100
AcDbEntity
  8
Layer 1
 62
     7
370
    15
100
AcDbVertex
100
AcDb2dVertex
 10
305.8044175125246
 20
955.4657102103523
 30
0.0
  0
SEQEND
  5
1BF
330
1BC
100
AcDbEntity
  8
Layer 1
370
    15
  0
POLYLINE
  5
1C0
330
3C
100
AcDbEntity
  8
Layer 1
 62
     7
370
    15
100
AcDb2dPolyline
 66
     1
 10
0.0
 20
0.0
 30
0.0
  0
VERTEX
  5
1C1
330
1C0
100
AcDbEntity
  8
Layer 1
 62
     7
370
    15
100
AcDbVertex
100
AcDb2dVertex
 10
295.8045111022641
 20
955.4657102103523
 30
0.0
  0
VERTEX
  5
1C2
330
1C0
100
AcDbEntity
  8
Layer 1
 62
     7
370
    15
100
AcDbVertex
100
AcDb2dVertex
 10
305.8044175125246
 20
955.4657102103523
 30
0.0
  0
SEQEND
  5
1C3
330
1C0
100
AcDbEntity
  8
Layer 1
370
    15
  0
POLYLINE
  5
1C4
330
3C
100
AcDbEntity
  8
Layer 1
 62
     7
370
    15
100
AcDb2dPolyline
 66
     1
 10
0.0
 20
0.0
 30
0.0
  0
VERTEX
  5
1C5
330
1C4
100
AcDbEntity
  8
Layer 1
 62
     7
370
    15
100
AcDbVertex
100
AcDb2dVertex
 10
665.8039766130629
 20
955.4657102103523
 30
0.0
  0
VERTEX
  5
1C6
330
1C4
100
AcDbEntity
  8
Layer 1
 62
     7
370
    15
100
AcDbVertex
100
AcDb2dVertex
 10
305.8044175125246
 20
955.4657102103523
 30
0.0
  0
SEQEND
  5
1C7
330
1C4
100
AcDbEntity
  8
Layer 1
370
    15
  0
POLYLINE
  5
1C8
330
3C
100
AcDbEntity
  8
Layer 1
 62
     7
370
    15
100
AcDb2dPolyline
 66
     1
 10
0.0
 20
0.0
 30
0.0
  0
VERTEX
  5
1C9
330
1C8
100
AcDbEntity
  8
Layer 1
 62
     7
370
    15
100
AcDbVertex
100
AcDb2dVertex
 10
305.8044175125246
 20
955.4657102103523
 30
0.0
  0
VERTEX
  5
1CA
330
1C8
100
AcDbEntity
  8
Layer 1
 62
     7
370
    15
100
AcDbVertex
100
AcDb2dVertex
 10
305.8044175125246
 20
570.4661267020016
 30
0.0
  0
SEQEND
  5
1CB
330
1C8
100
AcDbEntity
  8
Layer 1
370
    15
  0
POLYLINE
  5
1CC
330
3C
100
AcDbEntity
  8
Layer 1
 62
     7
370
    15
100
AcDb2dPolyline
 66
     1
 10
0.0
 20
0.0
 30
0.0
  0
VERTEX
  5
1CD
330
1CC
100
AcDbEntity
  8
Layer 1
 62
     7
370
    15
100
AcDbVertex
100
AcDb2dVertex
 10
295.8045111022641
 20
570.4661267020016
 30
0.0
  0
VERTEX
  5
1CE
330
1CC
100
AcDbEntity
  8
Layer 1
 62
     7
370
    15
100
AcDbVertex
100
AcDb2dVertex
 10
305.8044175125246
 20
570.4661267020016
 30
0.0
  0
SEQEND
  5
1CF
330
1CC
100
AcDbEntity
  8
Layer 1
370
    15
  0
POLYLINE
  5
1D0
330
3C
100
AcDbEntity
  8
Layer 1
 62
     7
370
    15
100
AcDb2dPolyline
 66
     1
 10
0.0
 20
0.0
 30
0.0
  0
VERTEX
  5
1D1
330
1D0
100
AcDbEntity
  8
Layer 1
 62
     7
370
    15
100
AcDbVertex
100
AcDb2dVertex
 10
665.8039766130629
 20
570.4661267020016
 30
0.0
  0
VERTEX
  5
1D2
330
1D0
100
AcDbEntity
  8
Layer 1
 62
     7
370
    15
100
AcDbVertex
100
AcDb2dVertex
 10
665.8039766130629
 20
955.4657102103523
 30
0.0
  0
SEQEND
  5
1D3
330
1D0
100
AcDbEntity
  8
Layer 1
370
    15
  0
POLYLINE
  5
1D4
330
3C
100
AcDbEntity
  8
Layer 1
 62
     7
370
    15
100
AcDb2dPolyline
 66
     1
 10
0.0
 20
0.0
 30
0.0
  0
VERTEX
  5
1D5
330
1D4
100
AcDbEntity
  8
Layer 1
 62
     7
370
    15
100
AcDbVertex
100
AcDb2dVertex
 10
665.8039766130629
 20
570.4661267020016
 30
0.0
  0
VERTEX
  5
1D6
330
1D4
100
AcDbEntity
  8
Layer 1
 62
     7
370
    15
100
AcDbVertex
100
AcDb2dVertex
 10
675.8037107685491
 20
570.4661267020016
 30
0.0
  0
SEQEND
  5
1D7
330
1D4
100
AcDbEntity
  8
Layer 1
370
    15
  0
POLYLINE
  5
1D8
330
3C
100
AcDbEntity
  8
Layer 1
 62
     7
370
    15
100
AcDb2dPolyline
 66
     1
 10
0.0
 20
0.0
 30
0.0
  0
VERTEX
  5
1D9
330
1D8
100
AcDbEntity
  8
Layer 1
 62
     7
370
    15
100
AcDbVertex
100
AcDb2dVertex
 10
305.8044175125246
 20
570.4661267020016
 30
0.0
  0
VERTEX
  5
1DA
330
1D8
100
AcDbEntity
  8
Layer 1
 62
     7
370
    15
100
AcDbVertex
100
AcDb2dVertex
 10
305.8044175125246
 20
560.4660480369669
 30
0.0
  0
SEQEND
  5
1DB
330
1D8
100
AcDbEntity
  8
Layer 1
370
    15
  0
POLYLINE
  5
1DC
330
3C
100
AcDbEntity
  8
Layer 1
 62
     7
370
    15
100
AcDb2dPolyline
 66
     1
 10
0.0
 20
0.0
 30
0.0
  0
VERTEX
  5
1DD
330
1DC
100
AcDbEntity
  8
Layer 1
 62
     7
370
    15
100
AcDbVertex
100
AcDb2dVertex
 10
665.8039766130629
 20
570.4661267020016
 30
0.0
  0
VERTEX
  5
1DE
330
1DC
100
AcDbEntity
  8
Layer 1
 62
     7
370
    15
100
AcDbVertex
100
AcDb2dVertex
 10
665.8039766130629
 20
560.4660480369669
 30
0.0
  0
SEQEND
  5
1DF
330
1DC
100
AcDbEntity
  8
Layer 1
370
    15
  0
POLYLINE
  5
1E0
330
3C
100
AcDbEntity
  8
Layer 1
 62
     7
370
    15
100
AcDb2dPolyline
 66
     1
 10
0.0
 20
0.0
 30
0.0
  0
VERTEX
  5
1E1
330
1E0
100
AcDbEntity
  8
Layer 1
 62
     7
370
    15
100
AcDbVertex
100
AcDb2dVertex
 10
305.8044175125246
 20
570.4661267020016
 30
0.0
  0
VERTEX
  5
1E2
330
1E0
100
AcDbEntity
  8
Layer 1
 62
     7
370
    15
100
AcDbVertex
100
AcDb2dVertex
 10
665.8039766130629
 20
570.4661267020016
 30
0.0
  0
SEQEND
  5
1E3
330
1E0
100
AcDbEntity
  8
Layer 1
370
    15
  0
POLYLINE
  5
1E4
330
3C
100
AcDbEntity
  8
Layer 1
 62
     7
370
    15
100
AcDb2dPolyline
 66
     1
 10
0.0
 20
0.0
 30
0.0
  0
VERTEX
  5
1E5
330
1E4
100
AcDbEntity
  8
Layer 1
 62
     7
370
    15
100
AcDbVertex
100
AcDb2dVertex
 10
665.8039766130629
 20
955.4657102103523
 30
0.0
  0
VERTEX
  5
1E6
330
1E4
100
AcDbEntity
  8
Layer 1
 62
     7
370
    15
100
AcDbVertex
100
AcDb2dVertex
 10
604.0127439896219
 20
912.8536686628456
 30
0.0
  0
VERTEX
  5
1E7
330
1E4
100
AcDbEntity
  8
Layer 1
 62
     7
370
    15
100
AcDbVertex
100
AcDb2dVertex
 10
542.2227171496006
 20
870.2411103510161
 30
0.0
  0
SEQEND
  5
1E8
330
1E4
100
AcDbEntity
  8
Layer 1
370
    15
  0
SPLINE
  5
1E9
330
3C
100
AcDbEntity
  8
Layer 1
 62
     7
370
    15
100
AcDbSpline
210
0.0
220
0.0
230
1.0
 70
     8
 71
     3
 72
     8
 73
     4
 74
     0
 42
0.0000000001
 43
0.0000000001
 40
0.0
 40
0.0
 40
0.0
 40
0.0
 40
1.0
 40
1.0
 40
1.0
 40
1.0
 10
531.804059383108
 20
875.465942163946
 30
0.0
 10
532.8114053029951
 20
875.465942163946
 30
0.0
 10
533.8180622037851
 20
875.3482921531248
 30
0.0
 10
534.7978473597901
 20
875.116092717419
 30
0.0
  0
SPLINE
  5
1EA
330
3C
100
AcDbEntity
  8
Layer 1
 62
     7
370
    15
100
AcDbSpline
210
0.0
220
0.0
230
1.0
 70
     8
 71
     3
 72
     8
 73
     4
 74
     0
 42
0.0000000001
 43
0.0000000001
 40
0.0
 40
0.0
 40
0.0
 40
0.0
 40
1.0
 40
1.0
 40
1.0
 40
1.0
 10
534.7978473597901
 20
875.116092717419
 30
0.0
 10
535.7779770253437
 20
874.8844100460359
 30
0.0
 10
536.7312349461124
 20
874.538005694994
 30
0.0
 10
537.6314383964082
 20
874.0866981864262
 30
0.0
  0
SPLINE
  5
1EB
330
3C
100
AcDbEntity
  8
Layer 1
 62
     7
370
    15
100
AcDbSpline
210
0.0
220
0.0
230
1.0
 70
     8
 71
     3
 72
     8
 73
     4
 74
     0
 42
0.0000000001
 43
0.0000000001
 40
0.0
 40
0.0
 40
0.0
 40
0.0
 40
1.0
 40
1.0
 40
1.0
 40
1.0
 10
537.6314383964082
 20
874.0866981864262
 30
0.0
 10
538.5316418467039
 20
873.6348739135358
 30
0.0
 10
539.3791353360754
 20
873.0783187378937
 30
0.0
 10
540.1511812343199
 20
872.4320188248607
 30
0.0
  0
SPLINE
  5
1EC
330
3C
100
AcDbEntity
  8
Layer 1
 62
     7
370
    15
100
AcDbSpline
210
0.0
220
0.0
230
1.0
 70
     8
 71
     3
 72
     8
 73
     4
 74
     0
 42
0.0000000001
 43
0.0000000001
 40
0.0
 40
0.0
 40
0.0
 40
0.0
 40
1.0
 40
1.0
 40
1.0
 40
1.0
 10
540.1511812343199
 20
872.4320188248607
 30
0.0
 10
540.9232271325643
 20
871.7852021475052
 30
0.0
 10
541.6205144587789
 20
871.0484684779844
 30
0.0
 10
542.2227171496006
 20
870.2411103510161
 30
0.0
  0
POLYLINE
  5
1ED
330
3C
100
AcDbEntity
  8
Layer 1
 62
     7
370
    15
100
AcDb2dPolyline
 66
     1
 10
0.0
 20
0.0
 30
0.0
  0
VERTEX
  5
1EE
330
1ED
100
AcDbEntity
  8
Layer 1
 62
     7
370
    15
100
AcDbVertex
100
AcDb2dVertex
 10
439.8041624877052
 20
875.465942163946
 30
0.0
  0
VERTEX
  5
1EF
330
1ED
100
AcDbEntity
  8
Layer 1
 62
     7
370
    15
100
AcDbVertex
100
AcDb2dVertex
 10
531.804059383108
 20
875.465942163946
 30
0.0
  0
SEQEND
  5
1F0
330
1ED
100
AcDbEntity
  8
Layer 1
370
    15
  0
SPLINE
  5
1F1
330
3C
100
AcDbEntity
  8
Layer 1
 62
     7
370
    15
100
AcDbSpline
210
0.0
220
0.0
230
1.0
 70
     8
 71
     3
 72
     8
 73
     4
 74
     0
 42
0.0000000001
 43
0.0000000001
 40
0.0
 40
0.0
 40
0.0
 40
0.0
 40
1.0
 40
1.0
 40
1.0
 40
1.0
 10
429.3856769759869
 20
870.2411103510161
 30
0.0
 10
429.9880519215829
 20
871.0484684779844
 30
0.0
 10
430.6848224834746
 20
871.7852021475052
 30
0.0
 10
431.4566961269448
 20
872.4320188248607
 30
0.0
  0
SPLINE
  5
1F2
330
3C
100
AcDbEntity
  8
Layer 1
 62
     7
370
    15
100
AcDbSpline
210
0.0
220
0.0
230
1.0
 70
     8
 71
     3
 72
     8
 73
     4
 74
     0
 42
0.0000000001
 43
0.0000000001
 40
0.0
 40
0.0
 40
0.0
 40
0.0
 40
1.0
 40
1.0
 40
1.0
 40
1.0
 10
431.4566961269448
 20
872.4320188248607
 30
0.0
 10
432.2287420251894
 20
873.0783187378937
 30
0.0
 10
433.0764077693351
 20
873.6348739135358
 30
0.0
 10
433.9766112196309
 20
874.0866981864262
 30
0.0
  0
SPLINE
  5
1F3
330
3C
100
AcDbEntity
  8
Layer 1
 62
     7
370
    15
100
AcDbSpline
210
0.0
220
0.0
230
1.0
 70
     8
 71
     3
 72
     8
 73
     4
 74
     0
 42
0.0000000001
 43
0.0000000001
 40
0.0
 40
0.0
 40
0.0
 40
0.0
 40
1.0
 40
1.0
 40
1.0
 40
1.0
 10
433.9766112196309
 20
874.0866981864262
 30
0.0
 10
434.8766424151524
 20
874.538005694994
 30
0.0
 10
435.829900335921
 20
874.8844100460359
 30
0.0
 10
436.8100300014746
 20
875.116092717419
 30
0.0
  0
SPLINE
  5
1F4
330
3C
100
AcDbEntity
  8
Layer 1
 62
     7
370
    15
100
AcDbSpline
210
0.0
220
0.0
230
1.0
 70
     8
 71
     3
 72
     8
 73
     4
 74
     0
 42
0.0000000001
 43
0.0000000001
 40
0.0
 40
0.0
 40
0.0
 40
0.0
 40
1.0
 40
1.0
 40
1.0
 40
1.0
 10
436.8100300014746
 20
875.116092717419
 30
0.0
 10
437.7901596670281
 20
875.3482921531248
 30
0.0
 10
438.7971610773667
 20
875.465942163946
 30
0.0
 10
439.8041624877052
 20
875.465942163946
 30
0.0
  0
POLYLINE
  5
1F5
330
3C
100
AcDbEntity
  8
Layer 1
 62
     7
370
    15
100
AcDb2dPolyline
 66
     1
 10
0.0
 20
0.0
 30
0.0
  0
VERTEX
  5
1F6
330
1F5
100
AcDbEntity
  8
Layer 1
 62
     7
370
    15
100
AcDbVertex
100
AcDb2dVertex
 10
429.3856769759869
 20
870.2411103510161
 30
0.0
  0
VERTEX
  5
1F7
330
1F5
100
AcDbEntity
  8
Layer 1
 62
     7
370
    15
100
AcDbVertex
100
AcDb2dVertex
 10
367.5949611168687
 20
912.8536686628456
 30
0.0
  0
VERTEX
  5
1F8
330
1F5
100
AcDbEntity
  8
Layer 1
 62
     7
370
    15
100
AcDbVertex
100
AcDb2dVertex
 10
305.8044175125246
 20
955.4657102103523
 30
0.0
  0
SEQEND
  5
1F9
330
1F5
100
AcDbEntity
  8
Layer 1
370
    15
  0
POLYLINE
  5
1FA
330
3C
100
AcDbEntity
  8
Layer 1
 62
     7
370
    15
100
AcDb2dPolyline
 66
     1
 10
0.0
 20
0.0
 30
0.0
  0
VERTEX
  5
1FB
330
1FA
100
AcDbEntity
  8
Layer 1
 62
     7
370
    15
100
AcDbVertex
100
AcDb2dVertex
 10
665.8039766130629
 20
570.4661267020016
 30
0.0
  0
VERTEX
  5
1FC
330
1FA
100
AcDbEntity
  8
Layer 1
 62
     7
370
    15
100
AcDbVertex
100
AcDb2dVertex
 10
602.4507376966096
 20
665.0853296948399
 30
0.0
  0
VERTEX
  5
1FD
330
1FA
100
AcDbEntity
  8
Layer 1
 62
     7
370
    15
100
AcDbVertex
100
AcDb2dVertex
 10
539.0962929967363
 20
759.7040159233553
 30
0.0
  0
SEQEND
  5
1FE
330
1FA
100
AcDbEntity
  8
Layer 1
370
    15
  0
SPLINE
  5
1FF
330
3C
100
AcDbEntity
  8
Layer 1
 62
     7
370
    15
100
AcDbSpline
210
0.0
220
0.0
230
1.0
 70
     8
 71
     3
 72
     8
 73
     4
 74
     0
 42
0.0000000001
 43
0.0000000001
 40
0.0
 40
0.0
 40
0.0
 40
0.0
 40
1.0
 40
1.0
 40
1.0
 40
1.0
 10
544.8041271966983
 20
770.4658052001787
 30
0.0
 10
544.8041271966983
 20
769.4093666696268
 30
0.0
 10
544.6742470969044
 20
768.352928139075
 30
0.0
 10
544.4196545405445
 20
767.3274954678903
 30
0.0
  0
SPLINE
  5
200
330
3C
100
AcDbEntity
  8
Layer 1
 62
     7
370
    15
100
AcDbSpline
210
0.0
220
0.0
230
1.0
 70
     8
 71
     3
 72
     8
 73
     4
 74
     0
 42
0.0000000001
 43
0.0000000001
 40
0.0
 40
0.0
 40
0.0
 40
0.0
 40
1.0
 40
1.0
 40
1.0
 40
1.0
 10
544.4196545405445
 20
767.3274954678903
 30
0.0
 10
544.1643729650874
 20
766.3025795610286
 30
0.0
 10
543.7840344235158
 20
765.3084972587598
 30
0.0
 10
543.289318711834
 20
764.3750486370312
 30
0.0
  0
SPLINE
  5
201
330
3C
100
AcDbEntity
  8
Layer 1
 62
     7
370
    15
100
AcDbSpline
210
0.0
220
0.0
230
1.0
 70
     8
 71
     3
 72
     8
 73
     4
 74
     0
 42
0.0000000001
 43
0.0000000001
 40
0.0
 40
0.0
 40
0.0
 40
0.0
 40
1.0
 40
1.0
 40
1.0
 40
1.0
 10
543.289318711834
 20
764.3750486370312
 30
0.0
 10
542.7942584906035
 20
763.4417722700771
 30
0.0
 10
542.1844765897143
 20
762.5691295836633
 30
0.0
 10
541.4789210343351
 20
761.7829587939293
 30
0.0
  0
SPLINE
  5
202
330
3C
100
AcDbEntity
  8
Layer 1
 62
     7
370
    15
100
AcDbSpline
210
0.0
220
0.0
230
1.0
 70
     8
 71
     3
 72
     8
 73
     4
 74
     0
 42
0.0000000001
 43
0.0000000001
 40
0.0
 40
0.0
 40
0.0
 40
0.0
 40
1.0
 40
1.0
 40
1.0
 40
1.0
 10
541.4789210343351
 20
761.7829587939293
 30
0.0
 10
540.773365478956
 20
760.9967880041953
 30
0.0
 10
539.9716917595383
 20
760.2967446015925
 30
0.0
 10
539.0962929967363
 20
759.7040159233553
 30
0.0
  0
POLYLINE
  5
203
330
3C
100
AcDbEntity
  8
Layer 1
 62
     7
370
    15
100
AcDb2dPolyline
 66
     1
 10
0.0
 20
0.0
 30
0.0
  0
VERTEX
  5
204
330
203
100
AcDbEntity
  8
Layer 1
 62
     7
370
    15
100
AcDbVertex
100
AcDb2dVertex
 10
544.8041271966983
 20
862.4658743503558
 30
0.0
  0
VERTEX
  5
205
330
203
100
AcDbEntity
  8
Layer 1
 62
     7
370
    15
100
AcDbVertex
100
AcDb2dVertex
 10
544.8041271966983
 20
770.4658052001787
 30
0.0
  0
SEQEND
  5
206
330
203
100
AcDbEntity
  8
Layer 1
370
    15
  0
SPLINE
  5
207
330
3C
100
AcDbEntity
  8
Layer 1
 62
     7
370
    15
100
AcDbSpline
210
0.0
220
0.0
230
1.0
 70
     8
 71
     3
 72
     8
 73
     4
 74
     0
 42
0.0000000001
 43
0.0000000001
 40
0.0
 40
0.0
 40
0.0
 40
0.0
 40
1.0
 40
1.0
 40
1.0
 40
1.0
 10
542.2227171496006
 20
870.2411103510161
 30
0.0
 10
543.0529851615458
 20
869.1281722545062
 30
0.0
 10
543.7044527178066
 20
867.8807031792973
 30
0.0
 10
544.1419798444333
 20
866.5620928823179
 30
0.0
  0
SPLINE
  5
208
330
3C
100
AcDbEntity
  8
Layer 1
 62
     7
370
    15
100
AcDbSpline
210
0.0
220
0.0
230
1.0
 70
     8
 71
     3
 72
     8
 73
     4
 74
     0
 42
0.0000000001
 43
0.0000000001
 40
0.0
 40
0.0
 40
0.0
 40
0.0
 40
1.0
 40
1.0
 40
1.0
 40
1.0
 10
544.1419798444333
 20
866.5620928823179
 30
0.0
 10
544.57950697106
 20
865.2439993496613
 30
0.0
 10
544.8041271966983
 20
863.8551091047827
 30
0.0
 10
544.8041271966983
 20
862.4658743503558
 30
0.0
  0
SPLINE
  5
209
330
3C
100
AcDbEntity
  8
Layer 1
 62
     7
370
    15
100
AcDbSpline
210
0.0
220
0.0
230
1.0
 70
     8
 71
     3
 72
     8
 73
     4
 74
     0
 42
0.0000000001
 43
0.0000000001
 40
0.0
 40
0.0
 40
0.0
 40
0.0
 40
1.0
 40
1.0
 40
1.0
 40
1.0
 10
426.8039224193407
 20
862.4658743503558
 30
0.0
 10
426.8039224193407
 20
863.8551091047827
 30
0.0
 10
427.028542644979
 20
865.2439993496613
 30
0.0
 10
427.4665865359285
 20
866.5620928823179
 30
0.0
  0
SPLINE
  5
20A
330
3C
100
AcDbEntity
  8
Layer 1
 62
     7
370
    15
100
AcDbSpline
210
0.0
220
0.0
230
1.0
 70
     8
 71
     3
 72
     8
 73
     4
 74
     0
 42
0.0000000001
 43
0.0000000001
 40
0.0
 40
0.0
 40
0.0
 40
0.0
 40
1.0
 40
1.0
 40
1.0
 40
1.0
 10
427.4665865359285
 20
866.5620928823179
 30
0.0
 10
427.9041136625552
 20
867.8807031792973
 30
0.0
 10
428.5550644544932
 20
869.1281722545062
 30
0.0
 10
429.3856769759869
 20
870.2411103510161
 30
0.0
  0
POLYLINE
  5
20B
330
3C
100
AcDbEntity
  8
Layer 1
 62
     7
370
    15
100
AcDb2dPolyline
 66
     1
 10
0.0
 20
0.0
 30
0.0
  0
VERTEX
  5
20C
330
20B
100
AcDbEntity
  8
Layer 1
 62
     7
370
    15
100
AcDbVertex
100
AcDb2dVertex
 10
426.8039224193407
 20
862.4658743503558
 30
0.0
  0
VERTEX
  5
20D
330
20B
100
AcDbEntity
  8
Layer 1
 62
     7
370
    15
100
AcDbVertex
100
AcDb2dVertex
 10
426.8039224193407
 20
770.4658052001787
 30
0.0
  0
SEQEND
  5
20E
330
20B
100
AcDbEntity
  8
Layer 1
370
    15
  0
SPLINE
  5
20F
330
3C
100
AcDbEntity
  8
Layer 1
 62
     7
370
    15
100
AcDbSpline
210
0.0
220
0.0
230
1.0
 70
     8
 71
     3
 72
     8
 73
     4
 74
     0
 42
0.0000000001
 43
0.0000000001
 40
0.0
 40
0.0
 40
0.0
 40
0.0
 40
1.0
 40
1.0
 40
1.0
 40
1.0
 10
432.5115843645283
 20
759.7040159233553
 30
0.0
 10
431.6368746208234
 20
760.2967446015925
 30
0.0
 10
430.8348563918573
 20
760.9967880041953
 30
0.0
 10
430.1289563269296
 20
761.7829587939293
 30
0.0
  0
SPLINE
  5
210
330
3C
100
AcDbEntity
  8
Layer 1
 62
     7
370
    15
100
AcDbSpline
210
0.0
220
0.0
230
1.0
 70
     8
 71
     3
 72
     8
 73
     4
 74
     0
 42
0.0000000001
 43
0.0000000001
 40
0.0
 40
0.0
 40
0.0
 40
0.0
 40
1.0
 40
1.0
 40
1.0
 40
1.0
 10
430.1289563269296
 20
761.7829587939293
 30
0.0
 10
429.4235730263247
 20
762.5691295836633
 30
0.0
 10
428.814135634984
 20
763.4417722700771
 30
0.0
 10
428.3192476685279
 20
764.3750486370312
 30
0.0
  0
SPLINE
  5
211
330
3C
100
AcDbEntity
  8
Layer 1
 62
     7
370
    15
100
AcDbSpline
210
0.0
220
0.0
230
1.0
 70
     8
 71
     3
 72
     8
 73
     4
 74
     0
 42
0.0000000001
 43
0.0000000001
 40
0.0
 40
0.0
 40
0.0
 40
0.0
 40
1.0
 40
1.0
 40
1.0
 40
1.0
 10
428.3192476685279
 20
764.3750486370312
 30
0.0
 10
427.8241874472974
 20
765.3084972587598
 30
0.0
 10
427.4436766509516
 20
766.3025795610286
 30
0.0
 10
427.1887395850431
 20
767.3274954678903
 30
0.0
  0
SPLINE
  5
212
330
3C
100
AcDbEntity
  8
Layer 1
 62
     7
370
    15
100
AcDbSpline
210
0.0
220
0.0
230
1.0
 70
     8
 71
     3
 72
     8
 73
     4
 74
     0
 42
0.0000000001
 43
0.0000000001
 40
0.0
 40
0.0
 40
0.0
 40
0.0
 40
1.0
 40
1.0
 40
1.0
 40
1.0
 10
427.1887395850431
 20
767.3274954678903
 30
0.0
 10
426.9336302643604
 20
768.352928139075
 30
0.0
 10
426.8039224193407
 20
769.4093666696268
 30
0.0
 10
426.8039224193407
 20
770.4658052001787
 30
0.0
  0
POLYLINE
  5
213
330
3C
100
AcDbEntity
  8
Layer 1
 62
     7
370
    15
100
AcDb2dPolyline
 66
     1
 10
0.0
 20
0.0
 30
0.0
  0
VERTEX
  5
214
330
213
100
AcDbEntity
  8
Layer 1
 62
     7
370
    15
100
AcDbVertex
100
AcDb2dVertex
 10
305.8044175125246
 20
570.4661267020016
 30
0.0
  0
VERTEX
  5
215
330
213
100
AcDbEntity
  8
Layer 1
 62
     7
370
    15
100
AcDbVertex
100
AcDb2dVertex
 10
369.1578286837522
 20
665.0853296948399
 30
0.0
  0
VERTEX
  5
216
330
213
100
AcDbEntity
  8
Layer 1
 62
     7
370
    15
100
AcDbVertex
100
AcDb2dVertex
 10
432.5115843645283
 20
759.7040159233553
 30
0.0
  0
SEQEND
  5
217
330
213
100
AcDbEntity
  8
Layer 1
370
    15
  0
SPLINE
  5
218
330
3C
100
AcDbEntity
  8
Layer 1
 62
     7
370
    15
100
AcDbSpline
210
0.0
220
0.0
230
1.0
 70
     8
 71
     3
 72
     8
 73
     4
 74
     0
 42
0.0000000001
 43
0.0000000001
 40
0.0
 40
0.0
 40
0.0
 40
0.0
 40
1.0
 40
1.0
 40
1.0
 40
1.0
 10
439.8041624877052
 20
757.4662541509113
 30
0.0
 10
438.5136297189306
 20
757.4662541509113
 30
0.0
 10
437.2234414597046
 20
757.6595240076338
 30
0.0
 10
435.9897527664366
 20
758.0381400014627
 30
0.0
  0
SPLINE
  5
219
330
3C
100
AcDbEntity
  8
Layer 1
 62
     7
370
    15
100
AcDbSpline
210
0.0
220
0.0
230
1.0
 70
     8
 71
     3
 72
     8
 73
     4
 74
     0
 42
0.0000000001
 43
0.0000000001
 40
0.0
 40
0.0
 40
0.0
 40
0.0
 40
1.0
 40
1.0
 40
1.0
 40
1.0
 10
435.9897527664366
 20
758.0381400014627
 30
0.0
 10
434.7560640731687
 20
758.4165837405175
 30
0.0
 10
433.5797362197301
 20
758.9802013619043
 30
0.0
 10
432.5115843645283
 20
759.7040159233553
 30
0.0
  0
POLYLINE
  5
21A
330
3C
100
AcDbEntity
  8
Layer 1
 62
     7
370
    15
100
AcDb2dPolyline
 66
     1
 10
0.0
 20
0.0
 30
0.0
  0
VERTEX
  5
21B
330
21A
100
AcDbEntity
  8
Layer 1
 62
     7
370
    15
100
AcDbVertex
100
AcDb2dVertex
 10
439.8041624877052
 20
757.4662541509113
 30
0.0
  0
VERTEX
  5
21C
330
21A
100
AcDbEntity
  8
Layer 1
 62
     7
370
    15
100
AcDbVertex
100
AcDb2dVertex
 10
531.804059383108
 20
757.4662541509113
 30
0.0
  0
SEQEND
  5
21D
330
21A
100
AcDbEntity
  8
Layer 1
370
    15
  0
SPLINE
  5
21E
330
3C
100
AcDbEntity
  8
Layer 1
 62
     7
370
    15
100
AcDbSpline
210
0.0
220
0.0
230
1.0
 70
     8
 71
     3
 72
     8
 73
     4
 74
     0
 42
0.0000000001
 43
0.0000000001
 40
0.0
 40
0.0
 40
0.0
 40
0.0
 40
1.0
 40
1.0
 40
1.0
 40
1.0
 10
539.0962929967363
 20
759.7040159233553
 30
0.0
 10
538.0283133963089
 20
758.9802013619043
 30
0.0
 10
536.8518132880961
 20
758.4165837405175
 30
0.0
 10
535.6181245948281
 20
758.0381400014627
 30
0.0
  0
SPLINE
  5
21F
330
3C
100
AcDbEntity
  8
Layer 1
 62
     7
370
    15
100
AcDbSpline
210
0.0
220
0.0
230
1.0
 70
     8
 71
     3
 72
     8
 73
     4
 74
     0
 42
0.0000000001
 43
0.0000000001
 40
0.0
 40
0.0
 40
0.0
 40
0.0
 40
1.0
 40
1.0
 40
1.0
 40
1.0
 10
535.6181245948281
 20
758.0381400014627
 30
0.0
 10
534.3844359015602
 20
757.6595240076338
 30
0.0
 10
533.0942476423342
 20
757.4662541509113
 30
0.0
 10
531.804059383108
 20
757.4662541509113
 30
0.0
  0
SPLINE
  5
220
330
3C
100
AcDbEntity
  8
Layer 1
 62
     7
370
    15
100
AcDbSpline
210
0.0
220
0.0
230
1.0
 70
     8
 71
     3
 72
     8
 73
     4
 74
     0
 42
0.0000000001
 43
0.0000000001
 40
0.0
 40
0.0
 40
0.0
 40
0.0
 40
1.0
 40
1.0
 40
1.0
 40
1.0
 10
520.89619805771
 20
859.8383000237558
 30
0.0
 10
520.3694429580153
 20
859.9230493726928
 30
0.0
 10
519.8371757055442
 20
859.9659408114843
 30
0.0
 10
519.3038749244275
 20
859.9659408114843
 30
0.0
  0
POLYLINE
  5
221
330
3C
100
AcDbEntity
  8
Layer 1
 62
     7
370
    15
100
AcDb2dPolyline
 66
     1
 10
0.0
 20
0.0
 30
0.0
  0
VERTEX
  5
222
330
221
100
AcDbEntity
  8
Layer 1
 62
     7
370
    15
100
AcDbVertex
100
AcDb2dVertex
 10
519.3038749244275
 20
859.9659408114843
 30
0.0
  0
VERTEX
  5
223
330
221
100
AcDbEntity
  8
Layer 1
 62
     7
370
    15
100
AcDbVertex
100
AcDb2dVertex
 10
452.3043469463857
 20
859.9659408114843
 30
0.0
  0
SEQEND
  5
224
330
221
100
AcDbEntity
  8
Layer 1
370
    15
  0
SPLINE
  5
225
330
3C
100
AcDbEntity
  8
Layer 1
 62
     7
370
    15
100
AcDbSpline
210
0.0
220
0.0
230
1.0
 70
     8
 71
     3
 72
     8
 73
     4
 74
     0
 42
0.0000000001
 43
0.0000000001
 40
0.0
 40
0.0
 40
0.0
 40
0.0
 40
1.0
 40
1.0
 40
1.0
 40
1.0
 10
452.3043469463857
 20
859.9659408114843
 30
0.0
 10
451.7710461652691
 20
859.9659408114843
 30
0.0
 10
451.2384344032494
 20
859.9230493726928
 30
0.0
 10
450.7120238131033
 20
859.8383000237558
 30
0.0
  0
SPLINE
  5
226
330
3C
100
AcDbEntity
  8
Layer 1
 62
     7
370
    15
100
AcDbSpline
210
0.0
220
0.0
230
1.0
 70
     8
 71
     3
 72
     8
 73
     4
 74
     0
 42
0.0000000001
 43
0.0000000001
 40
0.0
 40
0.0
 40
0.0
 40
0.0
 40
1.0
 40
1.0
 40
1.0
 40
1.0
 10
529.3039535894623
 20
849.9660344012239
 30
0.0
 10
529.3039535894623
 20
850.4989906727919
 30
0.0
 10
529.2615789149936
 20
851.0314301800373
 30
0.0
 10
529.1768295660565
 20
851.5574962606349
 30
0.0
  0
SPLINE
  5
227
330
3C
100
AcDbEntity
  8
Layer 1
 62
     7
370
    15
100
AcDbSpline
210
0.0
220
0.0
230
1.0
 70
     8
 71
     3
 72
     8
 73
     4
 74
     0
 42
0.0000000001
 43
0.0000000001
 40
0.0
 40
0.0
 40
0.0
 40
0.0
 40
1.0
 40
1.0
 40
1.0
 40
1.0
 10
529.1768295660565
 20
781.3741832898995
 30
0.0
 10
529.2615789149936
 20
781.9004216252714
 30
0.0
 10
529.3039535894623
 20
782.4328611325168
 30
0.0
 10
529.3039535894623
 20
782.9659896588593
 30
0.0
  0
POLYLINE
  5
228
330
3C
100
AcDbEntity
  8
Layer 1
 62
     7
370
    15
100
AcDb2dPolyline
 66
     1
 10
0.0
 20
0.0
 30
0.0
  0
VERTEX
  5
229
330
228
100
AcDbEntity
  8
Layer 1
 62
     7
370
    15
100
AcDbVertex
100
AcDb2dVertex
 10
529.3039535894623
 20
782.9659896588593
 30
0.0
  0
VERTEX
  5
22A
330
228
100
AcDbEntity
  8
Layer 1
 62
     7
370
    15
100
AcDbVertex
100
AcDb2dVertex
 10
529.3039535894623
 20
849.9660344012239
 30
0.0
  0
SEQEND
  5
22B
330
228
100
AcDbEntity
  8
Layer 1
370
    15
  0
SPLINE
  5
22C
330
3C
100
AcDbEntity
  8
Layer 1
 62
     7
370
    15
100
AcDbSpline
210
0.0
220
0.0
230
1.0
 70
     8
 71
     3
 72
     8
 73
     4
 74
     0
 42
0.0000000001
 43
0.0000000001
 40
0.0
 40
0.0
 40
0.0
 40
0.0
 40
1.0
 40
1.0
 40
1.0
 40
1.0
 10
442.3039237718025
 20
782.9659896588593
 30
0.0
 10
442.3039237718025
 20
782.4328611325168
 30
0.0
 10
442.3466429558196
 20
781.9004216252714
 30
0.0
 10
442.4317368143053
 20
781.3741832898995
 30
0.0
  0
SPLINE
  5
22D
330
3C
100
AcDbEntity
  8
Layer 1
 62
     7
370
    15
100
AcDbSpline
210
0.0
220
0.0
230
1.0
 70
     8
 71
     3
 72
     8
 73
     4
 74
     0
 42
0.0000000001
 43
0.0000000001
 40
0.0
 40
0.0
 40
0.0
 40
0.0
 40
1.0
 40
1.0
 40
1.0
 40
1.0
 10
442.4317368143053
 20
851.5574962606349
 30
0.0
 10
442.3466429558196
 20
851.0314301800373
 30
0.0
 10
442.3039237718025
 20
850.4989906727919
 30
0.0
 10
442.3039237718025
 20
849.9660344012239
 30
0.0
  0
POLYLINE
  5
22E
330
3C
100
AcDbEntity
  8
Layer 1
 62
     7
370
    15
100
AcDb2dPolyline
 66
     1
 10
0.0
 20
0.0
 30
0.0
  0
VERTEX
  5
22F
330
22E
100
AcDbEntity
  8
Layer 1
 62
     7
370
    15
100
AcDbVertex
100
AcDb2dVertex
 10
442.3039237718025
 20
849.9660344012239
 30
0.0
  0
VERTEX
  5
230
330
22E
100
AcDbEntity
  8
Layer 1
 62
     7
370
    15
100
AcDbVertex
100
AcDb2dVertex
 10
442.3039237718025
 20
782.9659896588593
 30
0.0
  0
SEQEND
  5
231
330
22E
100
AcDbEntity
  8
Layer 1
370
    15
  0
SPLINE
  5
232
330
3C
100
AcDbEntity
  8
Layer 1
 62
     7
370
    15
100
AcDbSpline
210
0.0
220
0.0
230
1.0
 70
     8
 71
     3
 72
     8
 73
     4
 74
     0
 42
0.0000000001
 43
0.0000000001
 40
0.0
 40
0.0
 40
0.0
 40
0.0
 40
1.0
 40
1.0
 40
1.0
 40
1.0
 10
519.3038749244275
 20
772.9662555033731
 30
0.0
 10
519.8371757055442
 20
772.9662555033731
 30
0.0
 10
520.3694429580153
 20
773.0086301778416
 30
0.0
 10
520.89619805771
 20
773.0933795267788
 30
0.0
  0
SPLINE
  5
233
330
3C
100
AcDbEntity
  8
Layer 1
 62
     7
370
    15
100
AcDbSpline
210
0.0
220
0.0
230
1.0
 70
     8
 71
     3
 72
     8
 73
     4
 74
     0
 42
0.0000000001
 43
0.0000000001
 40
0.0
 40
0.0
 40
0.0
 40
0.0
 40
1.0
 40
1.0
 40
1.0
 40
1.0
 10
450.7120238131033
 20
773.0933795267788
 30
0.0
 10
451.2384344032494
 20
773.0086301778416
 30
0.0
 10
451.7710461652691
 20
772.9662555033731
 30
0.0
 10
452.3043469463857
 20
772.9662555033731
 30
0.0
  0
POLYLINE
  5
234
330
3C
100
AcDbEntity
  8
Layer 1
 62
     7
370
    15
100
AcDb2dPolyline
 66
     1
 10
0.0
 20
0.0
 30
0.0
  0
VERTEX
  5
235
330
234
100
AcDbEntity
  8
Layer 1
 62
     7
370
    15
100
AcDbVertex
100
AcDb2dVertex
 10
452.3043469463857
 20
772.9662555033731
 30
0.0
  0
VERTEX
  5
236
330
234
100
AcDbEntity
  8
Layer 1
 62
     7
370
    15
100
AcDbVertex
100
AcDb2dVertex
 10
519.3038749244275
 20
772.9662555033731
 30
0.0
  0
SEQEND
  5
237
330
234
100
AcDbEntity
  8
Layer 1
370
    15
  0
SPLINE
  5
238
330
3C
100
AcDbEntity
  8
Layer 1
 62
     7
370
    15
100
AcDbSpline
210
0.0
220
0.0
230
1.0
 70
     8
 71
     3
 72
     8
 73
     4
 74
     0
 42
0.0000000001
 43
0.0000000001
 40
0.0
 40
0.0
 40
0.0
 40
0.0
 40
1.0
 40
1.0
 40
1.0
 40
1.0
 10
529.1768295660565
 20
851.5574962606349
 30
0.0
 10
528.4905665453947
 20
855.814428496984
 30
0.0
 10
525.1529580392847
 20
859.1518647483197
 30
0.0
 10
520.89619805771
 20
859.8383000237558
 30
0.0
  0
SPLINE
  5
239
330
3C
100
AcDbEntity
  8
Layer 1
 62
     7
370
    15
100
AcDbSpline
210
0.0
220
0.0
230
1.0
 70
     8
 71
     3
 72
     8
 73
     4
 74
     0
 42
0.0000000001
 43
0.0000000001
 40
0.0
 40
0.0
 40
0.0
 40
0.0
 40
1.0
 40
1.0
 40
1.0
 40
1.0
 10
450.7120238131033
 20
859.8383000237558
 30
0.0
 10
446.4559528506256
 20
859.1518647483197
 30
0.0
 10
443.1179998349671
 20
855.814428496984
 30
0.0
 10
442.4317368143053
 20
851.5574962606349
 30
0.0
  0
SPLINE
  5
23A
330
3C
100
AcDbEntity
  8
Layer 1
 62
     7
370
    15
100
AcDbSpline
210
0.0
220
0.0
230
1.0
 70
     8
 71
     3
 72
     8
 73
     4
 74
     0
 42
0.0000000001
 43
0.0000000001
 40
0.0
 40
0.0
 40
0.0
 40
0.0
 40
1.0
 40
1.0
 40
1.0
 40
1.0
 10
520.89619805771
 20
773.0933795267788
 30
0.0
 10
525.1529580392847
 20
773.7798148022148
 30
0.0
 10
528.4905665453947
 20
777.1174233083249
 30
0.0
 10
529.1768295660565
 20
781.3741832898995
 30
0.0
  0
SPLINE
  5
23B
330
3C
100
AcDbEntity
  8
Layer 1
 62
     7
370
    15
100
AcDbSpline
210
0.0
220
0.0
230
1.0
 70
     8
 71
     3
 72
     8
 73
     4
 74
     0
 42
0.0000000001
 43
0.0000000001
 40
0.0
 40
0.0
 40
0.0
 40
0.0
 40
1.0
 40
1.0
 40
1.0
 40
1.0
 10
442.4317368143053
 20
781.3741832898995
 30
0.0
 10
443.1179998349671
 20
777.1174233083249
 30
0.0
 10
446.4559528506256
 20
773.7798148022148
 30
0.0
 10
450.7120238131033
 20
773.0933795267788
 30
0.0
  0
POLYLINE
  5
23C
330
3C
100
AcDbEntity
  8
Layer 1
370
     0
100
AcDb2dPolyline
 66
     1
 10
0.0
 20
0.0
 30
0.0
  0
VERTEX
  5
23D
330
23C
100
AcDbEntity
  8
Layer 1
370
     0
100
AcDbVertex
100
AcDb2dVertex
 10
100.8043551722816
 20
816.4659259026544
 30
0.0
  0
VERTEX
  5
23E
330
23C
100
AcDbEntity
  8
Layer 1
370
     0
100
AcDbVertex
100
AcDb2dVertex
 10
95.80466034931273
 20
846.46581738821
 30
0.0
  0
VERTEX
  5
23F
330
23C
100
AcDbEntity
  8
Layer 1
370
     0
100
AcDbVertex
100
AcDb2dVertex
 10
105.8045667595732
 20
846.46581738821
 30
0.0
  0
SEQEND
  5
240
330
23C
100
AcDbEntity
  8
Layer 1
370
     0
  0
HATCH
  5
241
330
3C
100
AcDbEntity
  8
Layer 1
 62
     7
100
AcDbHatch
 10
0.0
 20
0.0
 30
0.0
210
0.0
220
0.0
230
1.0
  2
SOLID
 70
     1
 71
     0
 91
        1
 92
        1
 93
        3
 72
     1
 10
100.8043551722816
 20
816.4659259026544
 11
95.80466034931273
 21
846.46581738821
 72
     1
 10
95.80466034931273
 20
846.46581738821
 11
105.8045667595732
 21
846.46581738821
 72
     1
 10
105.8045667595732
 20
846.46581738821
 11
100.8043551722816
 21
816.4659259026544
 97
        0
 75
     2
 76
     1
 98
        0
  0
POLYLINE
  5
242
330
3C
100
AcDbEntity
  8
Layer 1
370
     0
100
AcDb2dPolyline
 66
     1
 10
0.0
 20
0.0
 30
0.0
  0
VERTEX
  5
243
330
242
100
AcDbEntity
  8
Layer 1
370
     0
100
AcDbVertex
100
AcDb2dVertex
 10
100.8043551722816
 20
1040.46568984405
 30
0.0
  0
VERTEX
  5
244
330
242
100
AcDbEntity
  8
Layer 1
370
     0
100
AcDbVertex
100
AcDb2dVertex
 10
105.8045667595732
 20
1010.46562610372
 30
0.0
  0
VERTEX
  5
245
330
242
100
AcDbEntity
  8
Layer 1
370
     0
100
AcDbVertex
100
AcDb2dVertex
 10
95.80466034931273
 20
1010.46562610372
 30
0.0
  0
SEQEND
  5
246
330
242
100
AcDbEntity
  8
Layer 1
370
     0
  0
HATCH
  5
247
330
3C
100
AcDbEntity
  8
Layer 1
 62
     7
100
AcDbHatch
 10
0.0
 20
0.0
 30
0.0
210
0.0
220
0.0
230
1.0
  2
SOLID
 70
     1
 71
     0
 91
        1
 92
        1
 93
        3
 72
     1
 10
100.8043551722816
 20
1040.46568984405
 11
105.8045667595732
 21
1010.46562610372
 72
     1
 10
105.8045667595732
 20
1010.46562610372
 11
95.80466034931273
 21
1010.46562610372
 72
     1
 10
95.80466034931273
 20
1010.46562610372
 11
100.8043551722816
 21
1040.46568984405
 97
        0
 75
     2
 76
     1
 98
        0
  0
POLYLINE
  5
248
330
3C
100
AcDbEntity
  8
Layer 1
 62
     7
370
    25
100
AcDb2dPolyline
 66
     1
 10
0.0
 20
0.0
 30
0.0
  0
VERTEX
  5
249
330
248
100
AcDbEntity
  8
Layer 1
 62
     7
370
    25
100
AcDbVertex
100
AcDb2dVertex
 10
229.5918429330534
 20
816.4659259026544
 30
0.0
  0
VERTEX
  5
24A
330
248
100
AcDbEntity
  8
Layer 1
 62
     7
370
    25
100
AcDbVertex
100
AcDb2dVertex
 10
90.80444876202111
 20
816.4659259026544
 30
0.0
  0
SEQEND
  5
24B
330
248
100
AcDbEntity
  8
Layer 1
370
    25
  0
POLYLINE
  5
24C
330
3C
100
AcDbEntity
  8
Layer 1
 62
     7
370
    25
100
AcDb2dPolyline
 66
     1
 10
0.0
 20
0.0
 30
0.0
  0
VERTEX
  5
24D
330
24C
100
AcDbEntity
  8
Layer 1
 62
     7
370
    25
100
AcDbVertex
100
AcDb2dVertex
 10
229.7303357715605
 20
1040.46568984405
 30
0.0
  0
VERTEX
  5
24E
330
24C
100
AcDbEntity
  8
Layer 1
 62
     7
370
    25
100
AcDbVertex
100
AcDb2dVertex
 10
90.80444876202111
 20
1040.46568984405
 30
0.0
  0
SEQEND
  5
24F
330
24C
100
AcDbEntity
  8
Layer 1
370
    25
  0
POLYLINE
  5
250
330
3C
100
AcDbEntity
  8
Layer 1
 62
     7
370
    25
100
AcDb2dPolyline
 66
     1
 10
0.0
 20
0.0
 30
0.0
  0
VERTEX
  5
251
330
250
100
AcDbEntity
  8
Layer 1
 62
     7
370
    25
100
AcDbVertex
100
AcDb2dVertex
 10
100.8043551722816
 20
816.4659259026544
 30
0.0
  0
VERTEX
  5
252
330
250
100
AcDbEntity
  8
Layer 1
 62
     7
370
    25
100
AcDbVertex
100
AcDb2dVertex
 10
100.8043551722816
 20
697.6998763989258
 30
0.0
  0
SEQEND
  5
253
330
250
100
AcDbEntity
  8
Layer 1
370
    25
  0
POLYLINE
  5
254
330
3C
100
AcDbEntity
  8
Layer 1
 62
     7
370
    25
100
AcDb2dPolyline
 66
     1
 10
0.0
 20
0.0
 30
0.0
  0
VERTEX
  5
255
330
254
100
AcDbEntity
  8
Layer 1
 62
     7
370
    25
100
AcDbVertex
100
AcDb2dVertex
 10
100.8043551722816
 20
816.4659259026544
 30
0.0
  0
VERTEX
  5
256
330
254
100
AcDbEntity
  8
Layer 1
 62
     7
370
    25
100
AcDbVertex
100
AcDb2dVertex
 10
100.8043551722816
 20
1040.46568984405
 30
0.0
  0
SEQEND
  5
257
330
254
100
AcDbEntity
  8
Layer 1
370
    25
  0
POLYLINE
  5
258
330
3C
100
AcDbEntity
  8
Layer 1
 62
     7
370
    25
100
AcDb2dPolyline
 66
     1
 10
0.0
 20
0.0
 30
0.0
  0
VERTEX
  5
259
330
258
100
AcDbEntity
  8
Layer 1
 62
     7
370
    25
100
AcDbVertex
100
AcDb2dVertex
 10
53.2895982397158
 20
697.6998763989258
 30
0.0
  0
VERTEX
  5
25A
330
258
100
AcDbEntity
  8
Layer 1
 62
     7
370
    25
100
AcDbVertex
100
AcDb2dVertex
 10
46.23421494069839
 20
702.9917153190438
 30
0.0
  0
SEQEND
  5
25B
330
258
100
AcDbEntity
  8
Layer 1
370
    25
  0
POLYLINE
  5
25C
330
3C
100
AcDbEntity
  8
Layer 1
 62
     7
370
    25
100
AcDb2dPolyline
 66
     1
 10
0.0
 20
0.0
 30
0.0
  0
VERTEX
  5
25D
330
25C
100
AcDbEntity
  8
Layer 1
 62
     7
370
    25
100
AcDbVertex
100
AcDb2dVertex
 10
46.23421494069839
 20
702.9917153190438
 30
0.0
  0
VERTEX
  5
25E
330
25C
100
AcDbEntity
  8
Layer 1
 62
     7
370
    25
100
AcDbVertex
100
AcDb2dVertex
 10
46.23421494069839
 20
713.5750486497312
 30
0.0
  0
SEQEND
  5
25F
330
25C
100
AcDbEntity
  8
Layer 1
370
    25
  0
POLYLINE
  5
260
330
3C
100
AcDbEntity
  8
Layer 1
 62
     7
370
    25
100
AcDb2dPolyline
 66
     1
 10
0.0
 20
0.0
 30
0.0
  0
VERTEX
  5
261
330
260
100
AcDbEntity
  8
Layer 1
 62
     7
370
    25
100
AcDbVertex
100
AcDb2dVertex
 10
46.23421494069839
 20
713.5750486497312
 30
0.0
  0
VERTEX
  5
262
330
260
100
AcDbEntity
  8
Layer 1
 62
     7
370
    25
100
AcDbVertex
100
AcDb2dVertex
 10
53.2895982397158
 20
718.8668875698493
 30
0.0
  0
SEQEND
  5
263
330
260
100
AcDbEntity
  8
Layer 1
370
    25
  0
POLYLINE
  5
264
330
3C
100
AcDbEntity
  8
Layer 1
 62
     7
370
    25
100
AcDb2dPolyline
 66
     1
 10
0.0
 20
0.0
 30
0.0
  0
VERTEX
  5
265
330
264
100
AcDbEntity
  8
Layer 1
 62
     7
370
    25
100
AcDbVertex
100
AcDb2dVertex
 10
53.2895982397158
 20
718.8668875698493
 30
0.0
  0
VERTEX
  5
266
330
264
100
AcDbEntity
  8
Layer 1
 62
     7
370
    25
100
AcDbVertex
100
AcDb2dVertex
 10
60.34532604828173
 20
718.8668875698493
 30
0.0
  0
SEQEND
  5
267
330
264
100
AcDbEntity
  8
Layer 1
370
    25
  0
POLYLINE
  5
268
330
3C
100
AcDbEntity
  8
Layer 1
 62
     7
370
    25
100
AcDb2dPolyline
 66
     1
 10
0.0
 20
0.0
 30
0.0
  0
VERTEX
  5
269
330
268
100
AcDbEntity
  8
Layer 1
 62
     7
370
    25
100
AcDbVertex
100
AcDb2dVertex
 10
60.34532604828173
 20
718.8668875698493
 30
0.0
  0
VERTEX
  5
26A
330
268
100
AcDbEntity
  8
Layer 1
 62
     7
370
    25
100
AcDbVertex
100
AcDb2dVertex
 10
67.40070934729913
 20
713.5750486497312
 30
0.0
  0
SEQEND
  5
26B
330
268
100
AcDbEntity
  8
Layer 1
370
    25
  0
POLYLINE
  5
26C
330
3C
100
AcDbEntity
  8
Layer 1
 62
     7
370
    25
100
AcDb2dPolyline
 66
     1
 10
0.0
 20
0.0
 30
0.0
  0
VERTEX
  5
26D
330
26C
100
AcDbEntity
  8
Layer 1
 62
     7
370
    25
100
AcDbVertex
100
AcDb2dVertex
 10
67.40070934729913
 20
713.5750486497312
 30
0.0
  0
VERTEX
  5
26E
330
26C
100
AcDbEntity
  8
Layer 1
 62
     7
370
    25
100
AcDbVertex
100
AcDb2dVertex
 10
67.40070934729913
 20
702.9917153190438
 30
0.0
  0
SEQEND
  5
26F
330
26C
100
AcDbEntity
  8
Layer 1
370
    25
  0
POLYLINE
  5
270
330
3C
100
AcDbEntity
  8
Layer 1
 62
     7
370
    25
100
AcDb2dPolyline
 66
     1
 10
0.0
 20
0.0
 30
0.0
  0
VERTEX
  5
271
330
270
100
AcDbEntity
  8
Layer 1
 62
     7
370
    25
100
AcDbVertex
100
AcDb2dVertex
 10
67.40070934729913
 20
702.9917153190438
 30
0.0
  0
VERTEX
  5
272
330
270
100
AcDbEntity
  8
Layer 1
 62
     7
370
    25
100
AcDbVertex
100
AcDb2dVertex
 10
74.45643715586506
 20
697.6998763989258
 30
0.0
  0
SEQEND
  5
273
330
270
100
AcDbEntity
  8
Layer 1
370
    25
  0
POLYLINE
  5
274
330
3C
100
AcDbEntity
  8
Layer 1
 62
     7
370
    25
100
AcDb2dPolyline
 66
     1
 10
0.0
 20
0.0
 30
0.0
  0
VERTEX
  5
275
330
274
100
AcDbEntity
  8
Layer 1
 62
     7
370
    25
100
AcDbVertex
100
AcDb2dVertex
 10
74.45643715586506
 20
697.6998763989258
 30
0.0
  0
VERTEX
  5
276
330
274
100
AcDbEntity
  8
Layer 1
 62
     7
370
    25
100
AcDbVertex
100
AcDb2dVertex
 10
88.5670314991256
 20
697.6998763989258
 30
0.0
  0
SEQEND
  5
277
330
274
100
AcDbEntity
  8
Layer 1
370
    25
  0
POLYLINE
  5
278
330
3C
100
AcDbEntity
  8
Layer 1
 62
     7
370
    25
100
AcDb2dPolyline
 66
     1
 10
0.0
 20
0.0
 30
0.0
  0
VERTEX
  5
279
330
278
100
AcDbEntity
  8
Layer 1
 62
     7
370
    25
100
AcDbVertex
100
AcDb2dVertex
 10
88.5670314991256
 20
697.6998763989258
 30
0.0
  0
VERTEX
  5
27A
330
278
100
AcDbEntity
  8
Layer 1
 62
     7
370
    25
100
AcDbVertex
100
AcDb2dVertex
 10
88.5670314991256
 20
718.8668875698493
 30
0.0
  0
SEQEND
  5
27B
330
278
100
AcDbEntity
  8
Layer 1
370
    25
  0
POLYLINE
  5
27C
330
3C
100
AcDbEntity
  8
Layer 1
 62
     7
370
    25
100
AcDb2dPolyline
 66
     1
 10
0.0
 20
0.0
 30
0.0
  0
VERTEX
  5
27D
330
27C
100
AcDbEntity
  8
Layer 1
 62
     7
370
    25
100
AcDbVertex
100
AcDb2dVertex
 10
53.2895982397158
 20
729.4498763909883
 30
0.0
  0
VERTEX
  5
27E
330
27C
100
AcDbEntity
  8
Layer 1
 62
     7
370
    25
100
AcDbVertex
100
AcDb2dVertex
 10
46.23421494069839
 20
734.741543056332
 30
0.0
  0
SEQEND
  5
27F
330
27C
100
AcDbEntity
  8
Layer 1
370
    25
  0
POLYLINE
  5
280
330
3C
100
AcDbEntity
  8
Layer 1
 62
     7
370
    25
100
AcDb2dPolyline
 66
     1
 10
0.0
 20
0.0
 30
0.0
  0
VERTEX
  5
281
330
280
100
AcDbEntity
  8
Layer 1
 62
     7
370
    25
100
AcDbVertex
100
AcDb2dVertex
 10
46.23421494069839
 20
734.741543056332
 30
0.0
  0
VERTEX
  5
282
330
280
100
AcDbEntity
  8
Layer 1
 62
     7
370
    25
100
AcDbVertex
100
AcDb2dVertex
 10
46.23421494069839
 20
745.3250486417937
 30
0.0
  0
SEQEND
  5
283
330
280
100
AcDbEntity
  8
Layer 1
370
    25
  0
POLYLINE
  5
284
330
3C
100
AcDbEntity
  8
Layer 1
 62
     7
370
    25
100
AcDb2dPolyline
 66
     1
 10
0.0
 20
0.0
 30
0.0
  0
VERTEX
  5
285
330
284
100
AcDbEntity
  8
Layer 1
 62
     7
370
    25
100
AcDbVertex
100
AcDb2dVertex
 10
46.23421494069839
 20
745.3250486417937
 30
0.0
  0
VERTEX
  5
286
330
284
100
AcDbEntity
  8
Layer 1
 62
     7
370
    25
100
AcDbVertex
100
AcDb2dVertex
 10
53.2895982397158
 20
750.6167153071375
 30
0.0
  0
SEQEND
  5
287
330
284
100
AcDbEntity
  8
Layer 1
370
    25
  0
POLYLINE
  5
288
330
3C
100
AcDbEntity
  8
Layer 1
 62
     7
370
    25
100
AcDb2dPolyline
 66
     1
 10
0.0
 20
0.0
 30
0.0
  0
VERTEX
  5
289
330
288
100
AcDbEntity
  8
Layer 1
 62
     7
370
    25
100
AcDbVertex
100
AcDb2dVertex
 10
53.2895982397158
 20
750.6167153071375
 30
0.0
  0
VERTEX
  5
28A
330
288
100
AcDbEntity
  8
Layer 1
 62
     7
370
    25
100
AcDbVertex
100
AcDb2dVertex
 10
60.34532604828173
 20
750.6167153071375
 30
0.0
  0
SEQEND
  5
28B
330
288
100
AcDbEntity
  8
Layer 1
370
    25
  0
POLYLINE
  5
28C
330
3C
100
AcDbEntity
  8
Layer 1
 62
     7
370
    25
100
AcDb2dPolyline
 66
     1
 10
0.0
 20
0.0
 30
0.0
  0
VERTEX
  5
28D
330
28C
100
AcDbEntity
  8
Layer 1
 62
     7
370
    25
100
AcDbVertex
100
AcDb2dVertex
 10
60.34532604828173
 20
750.6167153071375
 30
0.0
  0
VERTEX
  5
28E
330
28C
100
AcDbEntity
  8
Layer 1
 62
     7
370
    25
100
AcDbVertex
100
AcDb2dVertex
 10
67.40070934729913
 20
745.3250486417937
 30
0.0
  0
SEQEND
  5
28F
330
28C
100
AcDbEntity
  8
Layer 1
370
    25
  0
POLYLINE
  5
290
330
3C
100
AcDbEntity
  8
Layer 1
 62
     7
370
    25
100
AcDb2dPolyline
 66
     1
 10
0.0
 20
0.0
 30
0.0
  0
VERTEX
  5
291
330
290
100
AcDbEntity
  8
Layer 1
 62
     7
370
    25
100
AcDbVertex
100
AcDb2dVertex
 10
67.40070934729913
 20
745.3250486417937
 30
0.0
  0
VERTEX
  5
292
330
290
100
AcDbEntity
  8
Layer 1
 62
     7
370
    25
100
AcDbVertex
100
AcDb2dVertex
 10
67.40070934729913
 20
734.741543056332
 30
0.0
  0
SEQEND
  5
293
330
290
100
AcDbEntity
  8
Layer 1
370
    25
  0
POLYLINE
  5
294
330
3C
100
AcDbEntity
  8
Layer 1
 62
     7
370
    25
100
AcDb2dPolyline
 66
     1
 10
0.0
 20
0.0
 30
0.0
  0
VERTEX
  5
295
330
294
100
AcDbEntity
  8
Layer 1
 62
     7
370
    25
100
AcDbVertex
100
AcDb2dVertex
 10
67.40070934729913
 20
734.741543056332
 30
0.0
  0
VERTEX
  5
296
330
294
100
AcDbEntity
  8
Layer 1
 62
     7
370
    25
100
AcDbVertex
100
AcDb2dVertex
 10
74.45643715586506
 20
729.4498763909883
 30
0.0
  0
SEQEND
  5
297
330
294
100
AcDbEntity
  8
Layer 1
370
    25
  0
POLYLINE
  5
298
330
3C
100
AcDbEntity
  8
Layer 1
 62
     7
370
    25
100
AcDb2dPolyline
 66
     1
 10
0.0
 20
0.0
 30
0.0
  0
VERTEX
  5
299
330
298
100
AcDbEntity
  8
Layer 1
 62
     7
370
    25
100
AcDbVertex
100
AcDb2dVertex
 10
74.45643715586506
 20
729.4498763909883
 30
0.0
  0
VERTEX
  5
29A
330
298
100
AcDbEntity
  8
Layer 1
 62
     7
370
    25
100
AcDbVertex
100
AcDb2dVertex
 10
88.5670314991256
 20
729.4498763909883
 30
0.0
  0
SEQEND
  5
29B
330
298
100
AcDbEntity
  8
Layer 1
370
    25
  0
POLYLINE
  5
29C
330
3C
100
AcDbEntity
  8
Layer 1
 62
     7
370
    25
100
AcDb2dPolyline
 66
     1
 10
0.0
 20
0.0
 30
0.0
  0
VERTEX
  5
29D
330
29C
100
AcDbEntity
  8
Layer 1
 62
     7
370
    25
100
AcDbVertex
100
AcDb2dVertex
 10
88.5670314991256
 20
729.4498763909883
 30
0.0
  0
VERTEX
  5
29E
330
29C
100
AcDbEntity
  8
Layer 1
 62
     7
370
    25
100
AcDbVertex
100
AcDb2dVertex
 10
88.5670314991256
 20
750.6167153071375
 30
0.0
  0
SEQEND
  5
29F
330
29C
100
AcDbEntity
  8
Layer 1
370
    25
  0
POLYLINE
  5
2A0
330
3C
100
AcDbEntity
  8
Layer 1
 62
     7
370
    25
100
AcDb2dPolyline
 66
     1
 10
0.0
 20
0.0
 30
0.0
  0
VERTEX
  5
2A1
330
2A0
100
AcDbEntity
  8
Layer 1
 62
     7
370
    25
100
AcDbVertex
100
AcDb2dVertex
 10
88.5670314991256
 20
777.074876379082
 30
0.0
  0
VERTEX
  5
2A2
330
2A0
100
AcDbEntity
  8
Layer 1
 62
     7
370
    25
100
AcDbVertex
100
AcDb2dVertex
 10
46.23421494069839
 20
777.074876379082
 30
0.0
  0
SEQEND
  5
2A3
330
2A0
100
AcDbEntity
  8
Layer 1
370
    25
  0
POLYLINE
  5
2A4
330
3C
100
AcDbEntity
  8
Layer 1
 62
     7
370
    25
100
AcDb2dPolyline
 66
     1
 10
0.0
 20
0.0
 30
0.0
  0
VERTEX
  5
2A5
330
2A4
100
AcDbEntity
  8
Layer 1
 62
     7
370
    25
100
AcDbVertex
100
AcDb2dVertex
 10
46.23421494069839
 20
777.074876379082
 30
0.0
  0
VERTEX
  5
2A6
330
2A4
100
AcDbEntity
  8
Layer 1
 62
     7
370
    25
100
AcDbVertex
100
AcDb2dVertex
 10
74.45643715586506
 20
761.1997041282765
 30
0.0
  0
SEQEND
  5
2A7
330
2A4
100
AcDbEntity
  8
Layer 1
370
    25
  0
POLYLINE
  5
2A8
330
3C
100
AcDbEntity
  8
Layer 1
 62
     7
370
    25
100
AcDb2dPolyline
 66
     1
 10
0.0
 20
0.0
 30
0.0
  0
VERTEX
  5
2A9
330
2A8
100
AcDbEntity
  8
Layer 1
 62
     7
370
    25
100
AcDbVertex
100
AcDb2dVertex
 10
74.45643715586506
 20
761.1997041282765
 30
0.0
  0
VERTEX
  5
2AA
330
2A8
100
AcDbEntity
  8
Layer 1
 62
     7
370
    25
100
AcDbVertex
100
AcDb2dVertex
 10
74.45643715586506
 20
782.3667152992
 30
0.0
  0
SEQEND
  5
2AB
330
2A8
100
AcDbEntity
  8
Layer 1
370
    25
  0
POLYLINE
  5
2AC
330
3C
100
AcDbEntity
  8
Layer 1
370
     0
100
AcDb2dPolyline
 66
     1
 10
0.0
 20
0.0
 30
0.0
  0
VERTEX
  5
2AD
330
2AC
100
AcDbEntity
  8
Layer 1
370
     0
100
AcDbVertex
100
AcDb2dVertex
 10
485.8041109354066
 20
425.6908120680565
 30
0.0
  0
VERTEX
  5
2AE
330
2AC
100
AcDbEntity
  8
Layer 1
370
     0
100
AcDbVertex
100
AcDb2dVertex
 10
515.8040024209622
 20
430.6903346362511
 30
0.0
  0
VERTEX
  5
2AF
330
2AC
100
AcDbEntity
  8
Layer 1
370
     0
100
AcDbVertex
100
AcDb2dVertex
 10
515.8040024209622
 20
420.6909449903134
 30
0.0
  0
SEQEND
  5
2B0
330
2AC
100
AcDbEntity
  8
Layer 1
370
     0
  0
HATCH
  5
2B1
330
3C
100
AcDbEntity
  8
Layer 1
 62
     7
100
AcDbHatch
 10
0.0
 20
0.0
 30
0.0
210
0.0
220
0.0
230
1.0
  2
SOLID
 70
     1
 71
     0
 91
        1
 92
        1
 93
        3
 72
     1
 10
485.8041109354066
 20
425.6908120680565
 11
515.8040024209622
 21
430.6903346362511
 72
     1
 10
515.8040024209622
 20
430.6903346362511
 11
515.8040024209622
 21
420.6909449903134
 72
     1
 10
515.8040024209622
 20
420.6909449903134
 11
485.8041109354066
 21
425.6908120680565
 97
        0
 75
     2
 76
     1
 98
        0
  0
POLYLINE
  5
2B2
330
3C
100
AcDbEntity
  8
Layer 1
370
     0
100
AcDb2dPolyline
 66
     1
 10
0.0
 20
0.0
 30
0.0
  0
VERTEX
  5
2B3
330
2B2
100
AcDbEntity
  8
Layer 1
370
     0
100
AcDbVertex
100
AcDb2dVertex
 10
270.8041421849031
 20
425.6908120680565
 30
0.0
  0
VERTEX
  5
2B4
330
2B2
100
AcDbEntity
  8
Layer 1
370
     0
100
AcDbVertex
100
AcDb2dVertex
 10
240.8040784445733
 20
420.6909449903134
 30
0.0
  0
VERTEX
  5
2B5
330
2B2
100
AcDbEntity
  8
Layer 1
370
     0
100
AcDbVertex
100
AcDb2dVertex
 10
240.8040784445733
 20
430.6903346362511
 30
0.0
  0
SEQEND
  5
2B6
330
2B2
100
AcDbEntity
  8
Layer 1
370
     0
  0
HATCH
  5
2B7
330
3C
100
AcDbEntity
  8
Layer 1
 62
     7
100
AcDbHatch
 10
0.0
 20
0.0
 30
0.0
210
0.0
220
0.0
230
1.0
  2
SOLID
 70
     1
 71
     0
 91
        1
 92
        1
 93
        3
 72
     1
 10
270.8041421849031
 20
425.6908120680565
 11
240.8040784445733
 21
420.6909449903134
 72
     1
 10
240.8040784445733
 20
420.6909449903134
 11
240.8040784445733
 21
430.6903346362511
 72
     1
 10
240.8040784445733
 20
430.6903346362511
 11
270.8041421849031
 21
425.6908120680565
 97
        0
 75
     2
 76
     1
 98
        0
  0
POLYLINE
  5
2B8
330
3C
100
AcDbEntity
  8
Layer 1
 62
     7
370
    25
100
AcDb2dPolyline
 66
     1
 10
0.0
 20
0.0
 30
0.0
  0
VERTEX
  5
2B9
330
2B8
100
AcDbEntity
  8
Layer 1
 62
     7
370
    25
100
AcDbVertex
100
AcDb2dVertex
 10
485.8041109354066
 20
495.1987140689087
 30
0.0
  0
VERTEX
  5
2BA
330
2B8
100
AcDbEntity
  8
Layer 1
 62
     7
370
    25
100
AcDbVertex
100
AcDb2dVertex
 10
485.8041109354066
 20
415.6903888934733
 30
0.0
  0
SEQEND
  5
2BB
330
2B8
100
AcDbEntity
  8
Layer 1
370
    25
  0
POLYLINE
  5
2BC
330
3C
100
AcDbEntity
  8
Layer 1
 62
     7
370
    25
100
AcDb2dPolyline
 66
     1
 10
0.0
 20
0.0
 30
0.0
  0
VERTEX
  5
2BD
330
2BC
100
AcDbEntity
  8
Layer 1
 62
     7
370
    25
100
AcDbVertex
100
AcDb2dVertex
 10
270.8041421849031
 20
494.7153671723281
 30
0.0
  0
VERTEX
  5
2BE
330
2BC
100
AcDbEntity
  8
Layer 1
 62
     7
370
    25
100
AcDbVertex
100
AcDb2dVertex
 10
270.8041421849031
 20
415.6903888934733
 30
0.0
  0
SEQEND
  5
2BF
330
2BC
100
AcDbEntity
  8
Layer 1
370
    25
  0
POLYLINE
  5
2C0
330
3C
100
AcDbEntity
  8
Layer 1
 62
     7
370
    25
100
AcDb2dPolyline
 66
     1
 10
0.0
 20
0.0
 30
0.0
  0
VERTEX
  5
2C1
330
2C0
100
AcDbEntity
  8
Layer 1
 62
     7
370
    25
100
AcDbVertex
100
AcDb2dVertex
 10
485.8041109354066
 20
425.6908120680565
 30
0.0
  0
VERTEX
  5
2C2
330
2C0
100
AcDbEntity
  8
Layer 1
 62
     7
370
    25
100
AcDbVertex
100
AcDb2dVertex
 10
545.8038939065178
 20
425.6908120680565
 30
0.0
  0
SEQEND
  5
2C3
330
2C0
100
AcDbEntity
  8
Layer 1
370
    25
  0
POLYLINE
  5
2C4
330
3C
100
AcDbEntity
  8
Layer 1
 62
     7
370
    25
100
AcDb2dPolyline
 66
     1
 10
0.0
 20
0.0
 30
0.0
  0
VERTEX
  5
2C5
330
2C4
100
AcDbEntity
  8
Layer 1
 62
     7
370
    25
100
AcDbVertex
100
AcDb2dVertex
 10
485.8041109354066
 20
425.6908120680565
 30
0.0
  0
VERTEX
  5
2C6
330
2C4
100
AcDbEntity
  8
Layer 1
 62
     7
370
    25
100
AcDbVertex
100
AcDb2dVertex
 10
270.8041421849031
 20
425.6908120680565
 30
0.0
  0
SEQEND
  5
2C7
330
2C4
100
AcDbEntity
  8
Layer 1
370
    25
  0
POLYLINE
  5
2C8
330
3C
100
AcDbEntity
  8
Layer 1
 62
     7
370
    25
100
AcDb2dPolyline
 66
     1
 10
0.0
 20
0.0
 30
0.0
  0
VERTEX
  5
2C9
330
2C8
100
AcDbEntity
  8
Layer 1
 62
     7
370
    25
100
AcDbVertex
100
AcDb2dVertex
 10
270.8041421849031
 20
425.6908120680565
 30
0.0
  0
VERTEX
  5
2CA
330
2C8
100
AcDbEntity
  8
Layer 1
 62
     7
370
    25
100
AcDbVertex
100
AcDb2dVertex
 10
210.8041869590177
 20
425.6908120680565
 30
0.0
  0
SEQEND
  5
2CB
330
2C8
100
AcDbEntity
  8
Layer 1
370
    25
  0
POLYLINE
  5
2CC
330
3C
100
AcDbEntity
  8
Layer 1
 62
     7
370
    25
100
AcDb2dPolyline
 66
     1
 10
0.0
 20
0.0
 30
0.0
  0
VERTEX
  5
2CD
330
2CC
100
AcDbEntity
  8
Layer 1
 62
     7
370
    25
100
AcDbVertex
100
AcDb2dVertex
 10
314.2161349040849
 20
473.2055690006222
 30
0.0
  0
VERTEX
  5
2CE
330
2CC
100
AcDbEntity
  8
Layer 1
 62
     7
370
    25
100
AcDbVertex
100
AcDb2dVertex
 10
319.5078015694286
 20
480.2611245544139
 30
0.0
  0
SEQEND
  5
2CF
330
2CC
100
AcDbEntity
  8
Layer 1
370
    25
  0
POLYLINE
  5
2D0
330
3C
100
AcDbEntity
  8
Layer 1
 62
     7
370
    25
100
AcDb2dPolyline
 66
     1
 10
0.0
 20
0.0
 30
0.0
  0
VERTEX
  5
2D1
330
2D0
100
AcDbEntity
  8
Layer 1
 62
     7
370
    25
100
AcDbVertex
100
AcDb2dVertex
 10
319.5078015694286
 20
480.2611245544139
 30
0.0
  0
VERTEX
  5
2D2
330
2D0
100
AcDbEntity
  8
Layer 1
 62
     7
370
    25
100
AcDbVertex
100
AcDb2dVertex
 10
330.0913071548904
 20
480.2611245544139
 30
0.0
  0
SEQEND
  5
2D3
330
2D0
100
AcDbEntity
  8
Layer 1
370
    25
  0
POLYLINE
  5
2D4
330
3C
100
AcDbEntity
  8
Layer 1
 62
     7
370
    25
100
AcDb2dPolyline
 66
     1
 10
0.0
 20
0.0
 30
0.0
  0
VERTEX
  5
2D5
330
2D4
100
AcDbEntity
  8
Layer 1
 62
     7
370
    25
100
AcDbVertex
100
AcDb2dVertex
 10
330.0913071548904
 20
480.2611245544139
 30
0.0
  0
VERTEX
  5
2D6
330
2D4
100
AcDbEntity
  8
Layer 1
 62
     7
370
    25
100
AcDbVertex
100
AcDb2dVertex
 10
335.3829738202342
 20
473.2055690006222
 30
0.0
  0
SEQEND
  5
2D7
330
2D4
100
AcDbEntity
  8
Layer 1
370
    25
  0
POLYLINE
  5
2D8
330
3C
100
AcDbEntity
  8
Layer 1
 62
     7
370
    25
100
AcDb2dPolyline
 66
     1
 10
0.0
 20
0.0
 30
0.0
  0
VERTEX
  5
2D9
330
2D8
100
AcDbEntity
  8
Layer 1
 62
     7
370
    25
100
AcDbVertex
100
AcDb2dVertex
 10
335.3829738202342
 20
473.2055690006222
 30
0.0
  0
VERTEX
  5
2DA
330
2D8
100
AcDbEntity
  8
Layer 1
 62
     7
370
    25
100
AcDbVertex
100
AcDb2dVertex
 10
335.3829738202342
 20
466.1503579563791
 30
0.0
  0
SEQEND
  5
2DB
330
2D8
100
AcDbEntity
  8
Layer 1
370
    25
  0
POLYLINE
  5
2DC
330
3C
100
AcDbEntity
  8
Layer 1
 62
     7
370
    25
100
AcDb2dPolyline
 66
     1
 10
0.0
 20
0.0
 30
0.0
  0
VERTEX
  5
2DD
330
2DC
100
AcDbEntity
  8
Layer 1
 62
     7
370
    25
100
AcDbVertex
100
AcDb2dVertex
 10
335.3829738202342
 20
466.1503579563791
 30
0.0
  0
VERTEX
  5
2DE
330
2DC
100
AcDbEntity
  8
Layer 1
 62
     7
370
    25
100
AcDbVertex
100
AcDb2dVertex
 10
330.0913071548904
 20
459.0948024025874
 30
0.0
  0
SEQEND
  5
2DF
330
2DC
100
AcDbEntity
  8
Layer 1
370
    25
  0
POLYLINE
  5
2E0
330
3C
100
AcDbEntity
  8
Layer 1
 62
     7
370
    25
100
AcDb2dPolyline
 66
     1
 10
0.0
 20
0.0
 30
0.0
  0
VERTEX
  5
2E1
330
2E0
100
AcDbEntity
  8
Layer 1
 62
     7
370
    25
100
AcDbVertex
100
AcDb2dVertex
 10
330.0913071548904
 20
459.0948024025874
 30
0.0
  0
VERTEX
  5
2E2
330
2E0
100
AcDbEntity
  8
Layer 1
 62
     7
370
    25
100
AcDbVertex
100
AcDb2dVertex
 10
319.5078015694286
 20
459.0948024025874
 30
0.0
  0
SEQEND
  5
2E3
330
2E0
100
AcDbEntity
  8
Layer 1
370
    25
  0
POLYLINE
  5
2E4
330
3C
100
AcDbEntity
  8
Layer 1
 62
     7
370
    25
100
AcDb2dPolyline
 66
     1
 10
0.0
 20
0.0
 30
0.0
  0
VERTEX
  5
2E5
330
2E4
100
AcDbEntity
  8
Layer 1
 62
     7
370
    25
100
AcDbVertex
100
AcDb2dVertex
 10
319.5078015694286
 20
459.0948024025874
 30
0.0
  0
VERTEX
  5
2E6
330
2E4
100
AcDbEntity
  8
Layer 1
 62
     7
370
    25
100
AcDbVertex
100
AcDb2dVertex
 10
314.2161349040849
 20
452.0385578296987
 30
0.0
  0
SEQEND
  5
2E7
330
2E4
100
AcDbEntity
  8
Layer 1
370
    25
  0
POLYLINE
  5
2E8
330
3C
100
AcDbEntity
  8
Layer 1
 62
     7
370
    25
100
AcDb2dPolyline
 66
     1
 10
0.0
 20
0.0
 30
0.0
  0
VERTEX
  5
2E9
330
2E8
100
AcDbEntity
  8
Layer 1
 62
     7
370
    25
100
AcDbVertex
100
AcDb2dVertex
 10
314.2161349040849
 20
452.0385578296987
 30
0.0
  0
VERTEX
  5
2EA
330
2E8
100
AcDbEntity
  8
Layer 1
 62
     7
370
    25
100
AcDbVertex
100
AcDb2dVertex
 10
314.2161349040849
 20
437.9281357412124
 30
0.0
  0
SEQEND
  5
2EB
330
2E8
100
AcDbEntity
  8
Layer 1
370
    25
  0
POLYLINE
  5
2EC
330
3C
100
AcDbEntity
  8
Layer 1
 62
     7
370
    25
100
AcDb2dPolyline
 66
     1
 10
0.0
 20
0.0
 30
0.0
  0
VERTEX
  5
2ED
330
2EC
100
AcDbEntity
  8
Layer 1
 62
     7
370
    25
100
AcDbVertex
100
AcDb2dVertex
 10
314.2161349040849
 20
437.9281357412124
 30
0.0
  0
VERTEX
  5
2EE
330
2EC
100
AcDbEntity
  8
Layer 1
 62
     7
370
    25
100
AcDbVertex
100
AcDb2dVertex
 10
335.3829738202342
 20
437.9281357412124
 30
0.0
  0
SEQEND
  5
2EF
330
2EC
100
AcDbEntity
  8
Layer 1
370
    25
  0
POLYLINE
  5
2F0
330
3C
100
AcDbEntity
  8
Layer 1
 62
     7
370
    25
100
AcDb2dPolyline
 66
     1
 10
0.0
 20
0.0
 30
0.0
  0
VERTEX
  5
2F1
330
2F0
100
AcDbEntity
  8
Layer 1
 62
     7
370
    25
100
AcDbVertex
100
AcDb2dVertex
 10
345.9664794056959
 20
437.9281357412124
 30
0.0
  0
VERTEX
  5
2F2
330
2F0
100
AcDbEntity
  8
Layer 1
 62
     7
370
    25
100
AcDbVertex
100
AcDb2dVertex
 10
356.5494682268348
 20
437.9281357412124
 30
0.0
  0
SEQEND
  5
2F3
330
2F0
100
AcDbEntity
  8
Layer 1
370
    25
  0
POLYLINE
  5
2F4
330
3C
100
AcDbEntity
  8
Layer 1
 62
     7
370
    25
100
AcDb2dPolyline
 66
     1
 10
0.0
 20
0.0
 30
0.0
  0
VERTEX
  5
2F5
330
2F4
100
AcDbEntity
  8
Layer 1
 62
     7
370
    25
100
AcDbVertex
100
AcDb2dVertex
 10
351.2581460710396
 20
437.9281357412124
 30
0.0
  0
VERTEX
  5
2F6
330
2F4
100
AcDbEntity
  8
Layer 1
 62
     7
370
    25
100
AcDbVertex
100
AcDb2dVertex
 10
351.2581460710396
 20
480.2611245544139
 30
0.0
  0
SEQEND
  5
2F7
330
2F4
100
AcDbEntity
  8
Layer 1
370
    25
  0
POLYLINE
  5
2F8
330
3C
100
AcDbEntity
  8
Layer 1
 62
     7
370
    25
100
AcDb2dPolyline
 66
     1
 10
0.0
 20
0.0
 30
0.0
  0
VERTEX
  5
2F9
330
2F8
100
AcDbEntity
  8
Layer 1
 62
     7
370
    25
100
AcDbVertex
100
AcDb2dVertex
 10
351.2581460710396
 20
480.2611245544139
 30
0.0
  0
VERTEX
  5
2FA
330
2F8
100
AcDbEntity
  8
Layer 1
 62
     7
370
    25
100
AcDbVertex
100
AcDb2dVertex
 10
345.9664794056959
 20
473.2055690006222
 30
0.0
  0
SEQEND
  5
2FB
330
2F8
100
AcDbEntity
  8
Layer 1
370
    25
  0
POLYLINE
  5
2FC
330
3C
100
AcDbEntity
  8
Layer 1
 62
     7
370
    25
100
AcDb2dPolyline
 66
     1
 10
0.0
 20
0.0
 30
0.0
  0
VERTEX
  5
2FD
330
2FC
100
AcDbEntity
  8
Layer 1
 62
     7
370
    25
100
AcDbVertex
100
AcDb2dVertex
 10
367.1329738122967
 20
444.9833467854556
 30
0.0
  0
VERTEX
  5
2FE
330
2FC
100
AcDbEntity
  8
Layer 1
 62
     7
370
    25
100
AcDbVertex
100
AcDb2dVertex
 10
372.4246404776404
 20
437.9281357412124
 30
0.0
  0
SEQEND
  5
2FF
330
2FC
100
AcDbEntity
  8
Layer 1
370
    25
  0
POLYLINE
  5
300
330
3C
100
AcDbEntity
  8
Layer 1
 62
     7
370
    25
100
AcDb2dPolyline
 66
     1
 10
0.0
 20
0.0
 30
0.0
  0
VERTEX
  5
301
330
300
100
AcDbEntity
  8
Layer 1
 62
     7
370
    25
100
AcDbVertex
100
AcDb2dVertex
 10
372.4246404776404
 20
437.9281357412124
 30
0.0
  0
VERTEX
  5
302
330
300
100
AcDbEntity
  8
Layer 1
 62
     7
370
    25
100
AcDbVertex
100
AcDb2dVertex
 10
383.0076292987794
 20
437.9281357412124
 30
0.0
  0
SEQEND
  5
303
330
300
100
AcDbEntity
  8
Layer 1
370
    25
  0
POLYLINE
  5
304
330
3C
100
AcDbEntity
  8
Layer 1
 62
     7
370
    25
100
AcDb2dPolyline
 66
     1
 10
0.0
 20
0.0
 30
0.0
  0
VERTEX
  5
305
330
304
100
AcDbEntity
  8
Layer 1
 62
     7
370
    25
100
AcDbVertex
100
AcDb2dVertex
 10
383.0076292987794
 20
437.9281357412124
 30
0.0
  0
VERTEX
  5
306
330
304
100
AcDbEntity
  8
Layer 1
 62
     7
370
    25
100
AcDbVertex
100
AcDb2dVertex
 10
388.2992959641231
 20
444.9833467854556
 30
0.0
  0
SEQEND
  5
307
330
304
100
AcDbEntity
  8
Layer 1
370
    25
  0
POLYLINE
  5
308
330
3C
100
AcDbEntity
  8
Layer 1
 62
     7
370
    25
100
AcDb2dPolyline
 66
     1
 10
0.0
 20
0.0
 30
0.0
  0
VERTEX
  5
309
330
308
100
AcDbEntity
  8
Layer 1
 62
     7
370
    25
100
AcDbVertex
100
AcDb2dVertex
 10
388.2992959641231
 20
444.9833467854556
 30
0.0
  0
VERTEX
  5
30A
330
308
100
AcDbEntity
  8
Layer 1
 62
     7
370
    25
100
AcDbVertex
100
AcDb2dVertex
 10
388.2992959641231
 20
459.0948024025874
 30
0.0
  0
SEQEND
  5
30B
330
308
100
AcDbEntity
  8
Layer 1
370
    25
  0
POLYLINE
  5
30C
330
3C
100
AcDbEntity
  8
Layer 1
 62
     7
370
    25
100
AcDb2dPolyline
 66
     1
 10
0.0
 20
0.0
 30
0.0
  0
VERTEX
  5
30D
330
30C
100
AcDbEntity
  8
Layer 1
 62
     7
370
    25
100
AcDbVertex
100
AcDb2dVertex
 10
388.2992959641231
 20
459.0948024025874
 30
0.0
  0
VERTEX
  5
30E
330
30C
100
AcDbEntity
  8
Layer 1
 62
     7
370
    25
100
AcDbVertex
100
AcDb2dVertex
 10
383.0076292987794
 20
466.1503579563791
 30
0.0
  0
SEQEND
  5
30F
330
30C
100
AcDbEntity
  8
Layer 1
370
    25
  0
POLYLINE
  5
310
330
3C
100
AcDbEntity
  8
Layer 1
 62
     7
370
    25
100
AcDb2dPolyline
 66
     1
 10
0.0
 20
0.0
 30
0.0
  0
VERTEX
  5
311
330
310
100
AcDbEntity
  8
Layer 1
 62
     7
370
    25
100
AcDbVertex
100
AcDb2dVertex
 10
383.0076292987794
 20
466.1503579563791
 30
0.0
  0
VERTEX
  5
312
330
310
100
AcDbEntity
  8
Layer 1
 62
     7
370
    25
100
AcDbVertex
100
AcDb2dVertex
 10
367.1329738122967
 20
466.1503579563791
 30
0.0
  0
SEQEND
  5
313
330
310
100
AcDbEntity
  8
Layer 1
370
    25
  0
POLYLINE
  5
314
330
3C
100
AcDbEntity
  8
Layer 1
 62
     7
370
    25
100
AcDb2dPolyline
 66
     1
 10
0.0
 20
0.0
 30
0.0
  0
VERTEX
  5
315
330
314
100
AcDbEntity
  8
Layer 1
 62
     7
370
    25
100
AcDbVertex
100
AcDb2dVertex
 10
367.1329738122967
 20
466.1503579563791
 30
0.0
  0
VERTEX
  5
316
330
314
100
AcDbEntity
  8
Layer 1
 62
     7
370
    25
100
AcDbVertex
100
AcDb2dVertex
 10
367.1329738122967
 20
480.2611245544139
 30
0.0
  0
SEQEND
  5
317
330
314
100
AcDbEntity
  8
Layer 1
370
    25
  0
POLYLINE
  5
318
330
3C
100
AcDbEntity
  8
Layer 1
 62
     7
370
    25
100
AcDb2dPolyline
 66
     1
 10
0.0
 20
0.0
 30
0.0
  0
VERTEX
  5
319
330
318
100
AcDbEntity
  8
Layer 1
 62
     7
370
    25
100
AcDbVertex
100
AcDb2dVertex
 10
367.1329738122967
 20
480.2611245544139
 30
0.0
  0
VERTEX
  5
31A
330
318
100
AcDbEntity
  8
Layer 1
 62
     7
370
    25
100
AcDbVertex
100
AcDb2dVertex
 10
388.2992959641231
 20
480.2611245544139
 30
0.0
  0
SEQEND
  5
31B
330
318
100
AcDbEntity
  8
Layer 1
370
    25
  0
POLYLINE
  5
31C
330
3C
100
AcDbEntity
  8
Layer 1
370
     0
100
AcDb2dPolyline
 66
     1
 10
0.0
 20
0.0
 30
0.0
  0
VERTEX
  5
31D
330
31C
100
AcDbEntity
  8
Layer 1
370
     0
100
AcDbVertex
100
AcDb2dVertex
 10
30.80449353613568
 20
1040.46568984405
 30
0.0
  0
VERTEX
  5
31E
330
31C
100
AcDbEntity
  8
Layer 1
370
     0
100
AcDbVertex
100
AcDb2dVertex
 10
35.80453286865303
 20
1010.46562610372
 30
0.0
  0
VERTEX
  5
31F
330
31C
100
AcDbEntity
  8
Layer 1
370
     0
100
AcDbVertex
100
AcDb2dVertex
 10
25.80479871316686
 20
1010.46562610372
 30
0.0
  0
SEQEND
  5
320
330
31C
100
AcDbEntity
  8
Layer 1
370
     0
  0
HATCH
  5
321
330
3C
100
AcDbEntity
  8
Layer 1
 62
     7
100
AcDbHatch
 10
0.0
 20
0.0
 30
0.0
210
0.0
220
0.0
230
1.0
  2
SOLID
 70
     1
 71
     0
 91
        1
 92
        1
 93
        3
 72
     1
 10
30.80449353613568
 20
1040.46568984405
 11
35.80453286865303
 21
1010.46562610372
 72
     1
 10
35.80453286865303
 20
1010.46562610372
 11
25.80479871316686
 21
1010.46562610372
 72
     1
 10
25.80479871316686
 20
1010.46562610372
 11
30.80449353613568
 21
1040.46568984405
 97
        0
 75
     2
 76
     1
 98
        0
  0
POLYLINE
  5
322
330
3C
100
AcDbEntity
  8
Layer 1
370
     0
100
AcDb2dPolyline
 66
     1
 10
0.0
 20
0.0
 30
0.0
  0
VERTEX
  5
323
330
322
100
AcDbEntity
  8
Layer 1
370
     0
100
AcDbVertex
100
AcDb2dVertex
 10
30.80449353613568
 20
535.4663681387029
 30
0.0
  0
VERTEX
  5
324
330
322
100
AcDbEntity
  8
Layer 1
370
     0
100
AcDbVertex
100
AcDb2dVertex
 10
25.80479871316686
 20
565.4659151147099
 30
0.0
  0
VERTEX
  5
325
330
322
100
AcDbEntity
  8
Layer 1
370
     0
100
AcDbVertex
100
AcDb2dVertex
 10
35.80453286865303
 20
565.4659151147099
 30
0.0
  0
SEQEND
  5
326
330
322
100
AcDbEntity
  8
Layer 1
370
     0
  0
HATCH
  5
327
330
3C
100
AcDbEntity
  8
Layer 1
 62
     7
100
AcDbHatch
 10
0.0
 20
0.0
 30
0.0
210
0.0
220
0.0
230
1.0
  2
SOLID
 70
     1
 71
     0
 91
        1
 92
        1
 93
        3
 72
     1
 10
30.80449353613568
 20
535.4663681387029
 11
25.80479871316686
 21
565.4659151147099
 72
     1
 10
25.80479871316686
 20
565.4659151147099
 11
35.80453286865303
 21
565.4659151147099
 72
     1
 10
35.80453286865303
 20
565.4659151147099
 11
30.80449353613568
 21
535.4663681387029
 97
        0
 75
     2
 76
     1
 98
        0
  0
POLYLINE
  5
328
330
3C
100
AcDbEntity
  8
Layer 1
 62
     7
370
    25
100
AcDb2dPolyline
 66
     1
 10
0.0
 20
0.0
 30
0.0
  0
VERTEX
  5
329
330
328
100
AcDbEntity
  8
Layer 1
 62
     7
370
    25
100
AcDbVertex
100
AcDb2dVertex
 10
230.1216986186849
 20
1040.46568984405
 30
0.0
  0
VERTEX
  5
32A
330
328
100
AcDbEntity
  8
Layer 1
 62
     7
370
    25
100
AcDbVertex
100
AcDb2dVertex
 10
20.80458712587524
 20
1040.46568984405
 30
0.0
  0
SEQEND
  5
32B
330
328
100
AcDbEntity
  8
Layer 1
370
    25
  0
POLYLINE
  5
32C
330
3C
100
AcDbEntity
  8
Layer 1
 62
     7
370
    25
100
AcDb2dPolyline
 66
     1
 10
0.0
 20
0.0
 30
0.0
  0
VERTEX
  5
32D
330
32C
100
AcDbEntity
  8
Layer 1
 62
     7
370
    25
100
AcDbVertex
100
AcDb2dVertex
 10
230.1974907193604
 20
535.4663681387029
 30
0.0
  0
VERTEX
  5
32E
330
32C
100
AcDbEntity
  8
Layer 1
 62
     7
370
    25
100
AcDbVertex
100
AcDb2dVertex
 10
20.80458712587524
 20
535.4663681387029
 30
0.0
  0
SEQEND
  5
32F
330
32C
100
AcDbEntity
  8
Layer 1
370
    25
  0
POLYLINE
  5
330
330
3C
100
AcDbEntity
  8
Layer 1
 62
     7
370
    25
100
AcDb2dPolyline
 66
     1
 10
0.0
 20
0.0
 30
0.0
  0
VERTEX
  5
331
330
330
100
AcDbEntity
  8
Layer 1
 62
     7
370
    25
100
AcDbVertex
100
AcDb2dVertex
 10
30.80449353613568
 20
1040.46568984405
 30
0.0
  0
VERTEX
  5
332
330
330
100
AcDbEntity
  8
Layer 1
 62
     7
370
    25
100
AcDbVertex
100
AcDb2dVertex
 10
30.80449353613568
 20
535.4663681387029
 30
0.0
  0
SEQEND
  5
333
330
330
100
AcDbEntity
  8
Layer 1
370
    25
  0
POLYLINE
  5
334
330
3C
100
AcDbEntity
  8
Layer 1
 62
     7
370
    25
100
AcDb2dPolyline
 66
     1
 10
0.0
 20
0.0
 30
0.0
  0
VERTEX
  5
335
330
334
100
AcDbEntity
  8
Layer 1
 62
     7
370
    25
100
AcDbVertex
100
AcDb2dVertex
 10
11.51178656396233
 20
723.8781234626937
 30
0.0
  0
VERTEX
  5
336
330
334
100
AcDbEntity
  8
Layer 1
 62
     7
370
    25
100
AcDbVertex
100
AcDb2dVertex
 10
18.56768662730252
 20
729.1699623828117
 30
0.0
  0
SEQEND
  5
337
330
334
100
AcDbEntity
  8
Layer 1
370
    25
  0
POLYLINE
  5
338
330
3C
100
AcDbEntity
  8
Layer 1
 62
     7
370
    25
100
AcDb2dPolyline
 66
     1
 10
0.0
 20
0.0
 30
0.0
  0
VERTEX
  5
339
330
338
100
AcDbEntity
  8
Layer 1
 62
     7
370
    25
100
AcDbVertex
100
AcDb2dVertex
 10
18.56768662730252
 20
729.1699623828117
 30
0.0
  0
VERTEX
  5
33A
330
338
100
AcDbEntity
  8
Layer 1
 62
     7
370
    25
100
AcDbVertex
100
AcDb2dVertex
 10
18.56768662730252
 20
739.7529512039507
 30
0.0
  0
SEQEND
  5
33B
330
338
100
AcDbEntity
  8
Layer 1
370
    25
  0
POLYLINE
  5
33C
330
3C
100
AcDbEntity
  8
Layer 1
 62
     7
370
    25
100
AcDb2dPolyline
 66
     1
 10
0.0
 20
0.0
 30
0.0
  0
VERTEX
  5
33D
330
33C
100
AcDbEntity
  8
Layer 1
 62
     7
370
    25
100
AcDbVertex
100
AcDb2dVertex
 10
18.56768662730252
 20
739.7529512039507
 30
0.0
  0
VERTEX
  5
33E
330
33C
100
AcDbEntity
  8
Layer 1
 62
     7
370
    25
100
AcDbVertex
100
AcDb2dVertex
 10
11.51178656396233
 20
745.0446178692945
 30
0.0
  0
SEQEND
  5
33F
330
33C
100
AcDbEntity
  8
Layer 1
370
    25
  0
POLYLINE
  5
340
330
3C
100
AcDbEntity
  8
Layer 1
 62
     7
370
    25
100
AcDb2dPolyline
 66
     1
 10
0.0
 20
0.0
 30
0.0
  0
VERTEX
  5
341
330
340
100
AcDbEntity
  8
Layer 1
 62
     7
370
    25
100
AcDbVertex
100
AcDb2dVertex
 10
11.51178656396233
 20
745.0446178692945
 30
0.0
  0
VERTEX
  5
342
330
340
100
AcDbEntity
  8
Layer 1
 62
     7
370
    25
100
AcDbVertex
100
AcDb2dVertex
 10
-2.599324543621002
 20
745.0446178692945
 30
0.0
  0
SEQEND
  5
343
330
340
100
AcDbEntity
  8
Layer 1
370
    25
  0
POLYLINE
  5
344
330
3C
100
AcDbEntity
  8
Layer 1
 62
     7
370
    25
100
AcDb2dPolyline
 66
     1
 10
0.0
 20
0.0
 30
0.0
  0
VERTEX
  5
345
330
344
100
AcDbEntity
  8
Layer 1
 62
     7
370
    25
100
AcDbVertex
100
AcDb2dVertex
 10
-2.599324543621002
 20
745.0446178692945
 30
0.0
  0
VERTEX
  5
346
330
344
100
AcDbEntity
  8
Layer 1
 62
     7
370
    25
100
AcDbVertex
100
AcDb2dVertex
 10
-9.654535587864144
 20
739.7529512039507
 30
0.0
  0
SEQEND
  5
347
330
344
100
AcDbEntity
  8
Layer 1
370
    25
  0
POLYLINE
  5
348
330
3C
100
AcDbEntity
  8
Layer 1
 62
     7
370
    25
100
AcDb2dPolyline
 66
     1
 10
0.0
 20
0.0
 30
0.0
  0
VERTEX
  5
349
330
348
100
AcDbEntity
  8
Layer 1
 62
     7
370
    25
100
AcDbVertex
100
AcDb2dVertex
 10
-9.654535587864144
 20
739.7529512039507
 30
0.0
  0
VERTEX
  5
34A
330
348
100
AcDbEntity
  8
Layer 1
 62
     7
370
    25
100
AcDbVertex
100
AcDb2dVertex
 10
-9.654535587864144
 20
723.8781234626937
 30
0.0
  0
SEQEND
  5
34B
330
348
100
AcDbEntity
  8
Layer 1
370
    25
  0
POLYLINE
  5
34C
330
3C
100
AcDbEntity
  8
Layer 1
 62
     7
370
    25
100
AcDb2dPolyline
 66
     1
 10
0.0
 20
0.0
 30
0.0
  0
VERTEX
  5
34D
330
34C
100
AcDbEntity
  8
Layer 1
 62
     7
370
    25
100
AcDbVertex
100
AcDb2dVertex
 10
-9.654535587864144
 20
723.8781234626937
 30
0.0
  0
VERTEX
  5
34E
330
34C
100
AcDbEntity
  8
Layer 1
 62
     7
370
    25
100
AcDbVertex
100
AcDb2dVertex
 10
-23.76581895022174
 20
723.8781234626937
 30
0.0
  0
SEQEND
  5
34F
330
34C
100
AcDbEntity
  8
Layer 1
370
    25
  0
POLYLINE
  5
350
330
3C
100
AcDbEntity
  8
Layer 1
 62
     7
370
    25
100
AcDb2dPolyline
 66
     1
 10
0.0
 20
0.0
 30
0.0
  0
VERTEX
  5
351
330
350
100
AcDbEntity
  8
Layer 1
 62
     7
370
    25
100
AcDbVertex
100
AcDb2dVertex
 10
-23.76581895022174
 20
723.8781234626937
 30
0.0
  0
VERTEX
  5
352
330
350
100
AcDbEntity
  8
Layer 1
 62
     7
370
    25
100
AcDbVertex
100
AcDb2dVertex
 10
-23.76581895022174
 20
745.0446178692945
 30
0.0
  0
SEQEND
  5
353
330
350
100
AcDbEntity
  8
Layer 1
370
    25
  0
POLYLINE
  5
354
330
3C
100
AcDbEntity
  8
Layer 1
 62
     7
370
    25
100
AcDb2dPolyline
 66
     1
 10
0.0
 20
0.0
 30
0.0
  0
VERTEX
  5
355
330
354
100
AcDbEntity
  8
Layer 1
 62
     7
370
    25
100
AcDbVertex
100
AcDb2dVertex
 10
18.56768662730252
 20
760.9194456105514
 30
0.0
  0
VERTEX
  5
356
330
354
100
AcDbEntity
  8
Layer 1
 62
     7
370
    25
100
AcDbVertex
100
AcDb2dVertex
 10
11.51178656396233
 20
755.6281234547562
 30
0.0
  0
SEQEND
  5
357
330
354
100
AcDbEntity
  8
Layer 1
370
    25
  0
POLYLINE
  5
358
330
3C
100
AcDbEntity
  8
Layer 1
 62
     7
370
    25
100
AcDb2dPolyline
 66
     1
 10
0.0
 20
0.0
 30
0.0
  0
VERTEX
  5
359
330
358
100
AcDbEntity
  8
Layer 1
 62
     7
370
    25
100
AcDbVertex
100
AcDb2dVertex
 10
11.51178656396233
 20
755.6281234547562
 30
0.0
  0
VERTEX
  5
35A
330
358
100
AcDbEntity
  8
Layer 1
 62
     7
370
    25
100
AcDbVertex
100
AcDb2dVertex
 10
-16.71043565120434
 20
755.6281234547562
 30
0.0
  0
SEQEND
  5
35B
330
358
100
AcDbEntity
  8
Layer 1
370
    25
  0
POLYLINE
  5
35C
330
3C
100
AcDbEntity
  8
Layer 1
 62
     7
370
    25
100
AcDb2dPolyline
 66
     1
 10
0.0
 20
0.0
 30
0.0
  0
VERTEX
  5
35D
330
35C
100
AcDbEntity
  8
Layer 1
 62
     7
370
    25
100
AcDbVertex
100
AcDb2dVertex
 10
-16.71043565120434
 20
755.6281234547562
 30
0.0
  0
VERTEX
  5
35E
330
35C
100
AcDbEntity
  8
Layer 1
 62
     7
370
    25
100
AcDbVertex
100
AcDb2dVertex
 10
-23.76581895022174
 20
760.9194456105514
 30
0.0
  0
SEQEND
  5
35F
330
35C
100
AcDbEntity
  8
Layer 1
370
    25
  0
POLYLINE
  5
360
330
3C
100
AcDbEntity
  8
Layer 1
 62
     7
370
    25
100
AcDb2dPolyline
 66
     1
 10
0.0
 20
0.0
 30
0.0
  0
VERTEX
  5
361
330
360
100
AcDbEntity
  8
Layer 1
 62
     7
370
    25
100
AcDbVertex
100
AcDb2dVertex
 10
-23.76581895022174
 20
760.9194456105514
 30
0.0
  0
VERTEX
  5
362
330
360
100
AcDbEntity
  8
Layer 1
 62
     7
370
    25
100
AcDbVertex
100
AcDb2dVertex
 10
-23.76581895022174
 20
766.2111122758952
 30
0.0
  0
SEQEND
  5
363
330
360
100
AcDbEntity
  8
Layer 1
370
    25
  0
POLYLINE
  5
364
330
3C
100
AcDbEntity
  8
Layer 1
 62
     7
370
    25
100
AcDb2dPolyline
 66
     1
 10
0.0
 20
0.0
 30
0.0
  0
VERTEX
  5
365
330
364
100
AcDbEntity
  8
Layer 1
 62
     7
370
    25
100
AcDbVertex
100
AcDb2dVertex
 10
-23.76581895022174
 20
766.2111122758952
 30
0.0
  0
VERTEX
  5
366
330
364
100
AcDbEntity
  8
Layer 1
 62
     7
370
    25
100
AcDbVertex
100
AcDb2dVertex
 10
-16.71043565120434
 20
771.502778941239
 30
0.0
  0
SEQEND
  5
367
330
364
100
AcDbEntity
  8
Layer 1
370
    25
  0
POLYLINE
  5
368
330
3C
100
AcDbEntity
  8
Layer 1
 62
     7
370
    25
100
AcDb2dPolyline
 66
     1
 10
0.0
 20
0.0
 30
0.0
  0
VERTEX
  5
369
330
368
100
AcDbEntity
  8
Layer 1
 62
     7
370
    25
100
AcDbVertex
100
AcDb2dVertex
 10
-16.71043565120434
 20
771.502778941239
 30
0.0
  0
VERTEX
  5
36A
330
368
100
AcDbEntity
  8
Layer 1
 62
     7
370
    25
100
AcDbVertex
100
AcDb2dVertex
 10
11.51178656396233
 20
771.502778941239
 30
0.0
  0
SEQEND
  5
36B
330
368
100
AcDbEntity
  8
Layer 1
370
    25
  0
POLYLINE
  5
36C
330
3C
100
AcDbEntity
  8
Layer 1
 62
     7
370
    25
100
AcDb2dPolyline
 66
     1
 10
0.0
 20
0.0
 30
0.0
  0
VERTEX
  5
36D
330
36C
100
AcDbEntity
  8
Layer 1
 62
     7
370
    25
100
AcDbVertex
100
AcDb2dVertex
 10
11.51178656396233
 20
771.502778941239
 30
0.0
  0
VERTEX
  5
36E
330
36C
100
AcDbEntity
  8
Layer 1
 62
     7
370
    25
100
AcDbVertex
100
AcDb2dVertex
 10
18.56768662730252
 20
766.2111122758952
 30
0.0
  0
SEQEND
  5
36F
330
36C
100
AcDbEntity
  8
Layer 1
370
    25
  0
POLYLINE
  5
370
330
3C
100
AcDbEntity
  8
Layer 1
 62
     7
370
    25
100
AcDb2dPolyline
 66
     1
 10
0.0
 20
0.0
 30
0.0
  0
VERTEX
  5
371
330
370
100
AcDbEntity
  8
Layer 1
 62
     7
370
    25
100
AcDbVertex
100
AcDb2dVertex
 10
18.56768662730252
 20
766.2111122758952
 30
0.0
  0
VERTEX
  5
372
330
370
100
AcDbEntity
  8
Layer 1
 62
     7
370
    25
100
AcDbVertex
100
AcDb2dVertex
 10
18.56768662730252
 20
760.9194456105514
 30
0.0
  0
SEQEND
  5
373
330
370
100
AcDbEntity
  8
Layer 1
370
    25
  0
POLYLINE
  5
374
330
3C
100
AcDbEntity
  8
Layer 1
 62
     7
370
    25
100
AcDb2dPolyline
 66
     1
 10
0.0
 20
0.0
 30
0.0
  0
VERTEX
  5
375
330
374
100
AcDbEntity
  8
Layer 1
 62
     7
370
    25
100
AcDbVertex
100
AcDb2dVertex
 10
11.51178656396233
 20
782.0862845267006
 30
0.0
  0
VERTEX
  5
376
330
374
100
AcDbEntity
  8
Layer 1
 62
     7
370
    25
100
AcDbVertex
100
AcDb2dVertex
 10
18.56768662730252
 20
787.3779511920444
 30
0.0
  0
SEQEND
  5
377
330
374
100
AcDbEntity
  8
Layer 1
370
    25
  0
POLYLINE
  5
378
330
3C
100
AcDbEntity
  8
Layer 1
 62
     7
370
    25
100
AcDb2dPolyline
 66
     1
 10
0.0
 20
0.0
 30
0.0
  0
VERTEX
  5
379
330
378
100
AcDbEntity
  8
Layer 1
 62
     7
370
    25
100
AcDbVertex
100
AcDb2dVertex
 10
18.56768662730252
 20
787.3779511920444
 30
0.0
  0
VERTEX
  5
37A
330
378
100
AcDbEntity
  8
Layer 1
 62
     7
370
    25
100
AcDbVertex
100
AcDb2dVertex
 10
18.56768662730252
 20
797.9614567775062
 30
0.0
  0
SEQEND
  5
37B
330
378
100
AcDbEntity
  8
Layer 1
370
    25
  0
POLYLINE
  5
37C
330
3C
100
AcDbEntity
  8
Layer 1
 62
     7
370
    25
100
AcDb2dPolyline
 66
     1
 10
0.0
 20
0.0
 30
0.0
  0
VERTEX
  5
37D
330
37C
100
AcDbEntity
  8
Layer 1
 62
     7
370
    25
100
AcDbVertex
100
AcDb2dVertex
 10
18.56768662730252
 20
797.9614567775062
 30
0.0
  0
VERTEX
  5
37E
330
37C
100
AcDbEntity
  8
Layer 1
 62
     7
370
    25
100
AcDbVertex
100
AcDb2dVertex
 10
11.51178656396233
 20
803.25312344285
 30
0.0
  0
SEQEND
  5
37F
330
37C
100
AcDbEntity
  8
Layer 1
370
    25
  0
POLYLINE
  5
380
330
3C
100
AcDbEntity
  8
Layer 1
 62
     7
370
    25
100
AcDb2dPolyline
 66
     1
 10
0.0
 20
0.0
 30
0.0
  0
VERTEX
  5
381
330
380
100
AcDbEntity
  8
Layer 1
 62
     7
370
    25
100
AcDbVertex
100
AcDb2dVertex
 10
11.51178656396233
 20
803.25312344285
 30
0.0
  0
VERTEX
  5
382
330
380
100
AcDbEntity
  8
Layer 1
 62
     7
370
    25
100
AcDbVertex
100
AcDb2dVertex
 10
-2.599324543621002
 20
803.25312344285
 30
0.0
  0
SEQEND
  5
383
330
380
100
AcDbEntity
  8
Layer 1
370
    25
  0
POLYLINE
  5
384
330
3C
100
AcDbEntity
  8
Layer 1
 62
     7
370
    25
100
AcDb2dPolyline
 66
     1
 10
0.0
 20
0.0
 30
0.0
  0
VERTEX
  5
385
330
384
100
AcDbEntity
  8
Layer 1
 62
     7
370
    25
100
AcDbVertex
100
AcDb2dVertex
 10
-2.599324543621002
 20
803.25312344285
 30
0.0
  0
VERTEX
  5
386
330
384
100
AcDbEntity
  8
Layer 1
 62
     7
370
    25
100
AcDbVertex
100
AcDb2dVertex
 10
-9.654535587864144
 20
797.9614567775062
 30
0.0
  0
SEQEND
  5
387
330
384
100
AcDbEntity
  8
Layer 1
370
    25
  0
POLYLINE
  5
388
330
3C
100
AcDbEntity
  8
Layer 1
 62
     7
370
    25
100
AcDb2dPolyline
 66
     1
 10
0.0
 20
0.0
 30
0.0
  0
VERTEX
  5
389
330
388
100
AcDbEntity
  8
Layer 1
 62
     7
370
    25
100
AcDbVertex
100
AcDb2dVertex
 10
-9.654535587864144
 20
797.9614567775062
 30
0.0
  0
VERTEX
  5
38A
330
388
100
AcDbEntity
  8
Layer 1
 62
     7
370
    25
100
AcDbVertex
100
AcDb2dVertex
 10
-9.654535587864144
 20
782.0862845267006
 30
0.0
  0
SEQEND
  5
38B
330
388
100
AcDbEntity
  8
Layer 1
370
    25
  0
POLYLINE
  5
38C
330
3C
100
AcDbEntity
  8
Layer 1
 62
     7
370
    25
100
AcDb2dPolyline
 66
     1
 10
0.0
 20
0.0
 30
0.0
  0
VERTEX
  5
38D
330
38C
100
AcDbEntity
  8
Layer 1
 62
     7
370
    25
100
AcDbVertex
100
AcDb2dVertex
 10
-9.654535587864144
 20
782.0862845267006
 30
0.0
  0
VERTEX
  5
38E
330
38C
100
AcDbEntity
  8
Layer 1
 62
     7
370
    25
100
AcDbVertex
100
AcDb2dVertex
 10
-23.76581895022174
 20
782.0862845267006
 30
0.0
  0
SEQEND
  5
38F
330
38C
100
AcDbEntity
  8
Layer 1
370
    25
  0
POLYLINE
  5
390
330
3C
100
AcDbEntity
  8
Layer 1
 62
     7
370
    25
100
AcDb2dPolyline
 66
     1
 10
0.0
 20
0.0
 30
0.0
  0
VERTEX
  5
391
330
390
100
AcDbEntity
  8
Layer 1
 62
     7
370
    25
100
AcDbVertex
100
AcDb2dVertex
 10
-23.76581895022174
 20
782.0862845267006
 30
0.0
  0
VERTEX
  5
392
330
390
100
AcDbEntity
  8
Layer 1
 62
     7
370
    25
100
AcDbVertex
100
AcDb2dVertex
 10
-23.76581895022174
 20
803.25312344285
 30
0.0
  0
SEQEND
  5
393
330
390
100
AcDbEntity
  8
Layer 1
370
    25
  0
POLYLINE
  5
394
330
3C
100
AcDbEntity
  8
Layer 1
370
     0
100
AcDb2dPolyline
 66
     1
 10
0.0
 20
0.0
 30
0.0
  0
VERTEX
  5
395
330
394
100
AcDbEntity
  8
Layer 1
370
     0
100
AcDbVertex
100
AcDb2dVertex
 10
870.8036944437574
 20
560.4660480369669
 30
0.0
  0
VERTEX
  5
396
330
394
100
AcDbEntity
  8
Layer 1
370
     0
100
AcDbVertex
100
AcDb2dVertex
 10
865.8041718755629
 20
590.4662840320709
 30
0.0
  0
VERTEX
  5
397
330
394
100
AcDbEntity
  8
Layer 1
370
     0
100
AcDbVertex
100
AcDb2dVertex
 10
875.803217011952
 20
590.4662840320709
 30
0.0
  0
SEQEND
  5
398
330
394
100
AcDbEntity
  8
Layer 1
370
     0
  0
HATCH
  5
399
330
3C
100
AcDbEntity
  8
Layer 1
 62
     7
100
AcDbHatch
 10
0.0
 20
0.0
 30
0.0
210
0.0
220
0.0
230
1.0
  2
SOLID
 70
     1
 71
     0
 91
        1
 92
        1
 93
        3
 72
     1
 10
870.8036944437574
 20
560.4660480369669
 11
865.8041718755629
 21
590.4662840320709
 72
     1
 10
865.8041718755629
 20
590.4662840320709
 11
875.803217011952
 21
590.4662840320709
 72
     1
 10
875.803217011952
 20
590.4662840320709
 11
870.8036944437574
 21
560.4660480369669
 97
        0
 75
     2
 76
     1
 98
        0
  0
POLYLINE
  5
39A
330
3C
100
AcDbEntity
  8
Layer 1
370
     0
100
AcDb2dPolyline
 66
     1
 10
0.0
 20
0.0
 30
0.0
  0
VERTEX
  5
39B
330
39A
100
AcDbEntity
  8
Layer 1
370
     0
100
AcDbVertex
100
AcDb2dVertex
 10
870.8036944437574
 20
965.4656166206128
 30
0.0
  0
VERTEX
  5
39C
330
39A
100
AcDbEntity
  8
Layer 1
370
     0
100
AcDbVertex
100
AcDb2dVertex
 10
875.803217011952
 20
935.465552880283
 30
0.0
  0
VERTEX
  5
39D
330
39A
100
AcDbEntity
  8
Layer 1
370
     0
100
AcDbVertex
100
AcDb2dVertex
 10
865.8041718755629
 20
935.465552880283
 30
0.0
  0
SEQEND
  5
39E
330
39A
100
AcDbEntity
  8
Layer 1
370
     0
  0
HATCH
  5
39F
330
3C
100
AcDbEntity
  8
Layer 1
 62
     7
100
AcDbHatch
 10
0.0
 20
0.0
 30
0.0
210
0.0
220
0.0
230
1.0
  2
SOLID
 70
     1
 71
     0
 91
        1
 92
        1
 93
        3
 72
     1
 10
870.8036944437574
 20
965.4656166206128
 11
875.803217011952
 21
935.465552880283
 72
     1
 10
875.803217011952
 20
935.465552880283
 11
865.8041718755629
 21
935.465552880283
 72
     1
 10
865.8041718755629
 20
935.465552880283
 11
870.8036944437574
 21
965.4656166206128
 97
        0
 75
     2
 76
     1
 98
        0
  0
POLYLINE
  5
3A0
330
3C
100
AcDbEntity
  8
Layer 1
 62
     7
370
    25
100
AcDb2dPolyline
 66
     1
 10
0.0
 20
0.0
 30
0.0
  0
VERTEX
  5
3A1
330
3A0
100
AcDbEntity
  8
Layer 1
 62
     7
370
    25
100
AcDbVertex
100
AcDb2dVertex
 10
742.5441675661001
 20
560.4660480369669
 30
0.0
  0
VERTEX
  5
3A2
330
3A0
100
AcDbEntity
  8
Layer 1
 62
     7
370
    25
100
AcDbVertex
100
AcDb2dVertex
 10
880.8034285992436
 20
560.4660480369669
 30
0.0
  0
SEQEND
  5
3A3
330
3A0
100
AcDbEntity
  8
Layer 1
370
    25
  0
POLYLINE
  5
3A4
330
3C
100
AcDbEntity
  8
Layer 1
 62
     7
370
    25
100
AcDb2dPolyline
 66
     1
 10
0.0
 20
0.0
 30
0.0
  0
VERTEX
  5
3A5
330
3A4
100
AcDbEntity
  8
Layer 1
 62
     7
370
    25
100
AcDbVertex
100
AcDb2dVertex
 10
741.3390731653598
 20
965.4656166206128
 30
0.0
  0
VERTEX
  5
3A6
330
3A4
100
AcDbEntity
  8
Layer 1
 62
     7
370
    25
100
AcDbVertex
100
AcDb2dVertex
 10
880.8034285992436
 20
965.4656166206128
 30
0.0
  0
SEQEND
  5
3A7
330
3A4
100
AcDbEntity
  8
Layer 1
370
    25
  0
POLYLINE
  5
3A8
330
3C
100
AcDbEntity
  8
Layer 1
 62
     7
370
    25
100
AcDb2dPolyline
 66
     1
 10
0.0
 20
0.0
 30
0.0
  0
VERTEX
  5
3A9
330
3A8
100
AcDbEntity
  8
Layer 1
 62
     7
370
    25
100
AcDbVertex
100
AcDb2dVertex
 10
870.8036944437574
 20
560.4660480369669
 30
0.0
  0
VERTEX
  5
3AA
330
3A8
100
AcDbEntity
  8
Layer 1
 62
     7
370
    25
100
AcDbVertex
100
AcDb2dVertex
 10
870.8036944437574
 20
965.4656166206128
 30
0.0
  0
SEQEND
  5
3AB
330
3A8
100
AcDbEntity
  8
Layer 1
370
    25
  0
POLYLINE
  5
3AC
330
3C
100
AcDbEntity
  8
Layer 1
 62
     7
370
    25
100
AcDb2dPolyline
 66
     1
 10
0.0
 20
0.0
 30
0.0
  0
VERTEX
  5
3AD
330
3AC
100
AcDbEntity
  8
Layer 1
 62
     7
370
    25
100
AcDbVertex
100
AcDb2dVertex
 10
858.566026261053
 20
714.7530990509124
 30
0.0
  0
VERTEX
  5
3AE
330
3AC
100
AcDbEntity
  8
Layer 1
 62
     7
370
    25
100
AcDbVertex
100
AcDb2dVertex
 10
816.2333819574001
 20
714.7530990509124
 30
0.0
  0
SEQEND
  5
3AF
330
3AC
100
AcDbEntity
  8
Layer 1
370
    25
  0
POLYLINE
  5
3B0
330
3C
100
AcDbEntity
  8
Layer 1
 62
     7
370
    25
100
AcDb2dPolyline
 66
     1
 10
0.0
 20
0.0
 30
0.0
  0
VERTEX
  5
3B1
330
3B0
100
AcDbEntity
  8
Layer 1
 62
     7
370
    25
100
AcDbVertex
100
AcDb2dVertex
 10
816.2333819574001
 20
714.7530990509124
 30
0.0
  0
VERTEX
  5
3B2
330
3B0
100
AcDbEntity
  8
Layer 1
 62
     7
370
    25
100
AcDbVertex
100
AcDb2dVertex
 10
844.4556041725667
 20
698.8779268001069
 30
0.0
  0
SEQEND
  5
3B3
330
3B0
100
AcDbEntity
  8
Layer 1
370
    25
  0
POLYLINE
  5
3B4
330
3C
100
AcDbEntity
  8
Layer 1
 62
     7
370
    25
100
AcDb2dPolyline
 66
     1
 10
0.0
 20
0.0
 30
0.0
  0
VERTEX
  5
3B5
330
3B4
100
AcDbEntity
  8
Layer 1
 62
     7
370
    25
100
AcDbVertex
100
AcDb2dVertex
 10
844.4556041725667
 20
698.8779268001069
 30
0.0
  0
VERTEX
  5
3B6
330
3B4
100
AcDbEntity
  8
Layer 1
 62
     7
370
    25
100
AcDbVertex
100
AcDb2dVertex
 10
844.4556041725667
 20
720.0447657162562
 30
0.0
  0
SEQEND
  5
3B7
330
3B4
100
AcDbEntity
  8
Layer 1
370
    25
  0
POLYLINE
  5
3B8
330
3C
100
AcDbEntity
  8
Layer 1
 62
     7
370
    25
100
AcDb2dPolyline
 66
     1
 10
0.0
 20
0.0
 30
0.0
  0
VERTEX
  5
3B9
330
3B8
100
AcDbEntity
  8
Layer 1
 62
     7
370
    25
100
AcDbVertex
100
AcDb2dVertex
 10
858.566026261053
 20
735.9195934575132
 30
0.0
  0
VERTEX
  5
3BA
330
3B8
100
AcDbEntity
  8
Layer 1
 62
     7
370
    25
100
AcDbVertex
100
AcDb2dVertex
 10
851.5111597263584
 20
730.628271301718
 30
0.0
  0
SEQEND
  5
3BB
330
3B8
100
AcDbEntity
  8
Layer 1
370
    25
  0
POLYLINE
  5
3BC
330
3C
100
AcDbEntity
  8
Layer 1
 62
     7
370
    25
100
AcDb2dPolyline
 66
     1
 10
0.0
 20
0.0
 30
0.0
  0
VERTEX
  5
3BD
330
3BC
100
AcDbEntity
  8
Layer 1
 62
     7
370
    25
100
AcDbVertex
100
AcDb2dVertex
 10
851.5111597263584
 20
730.628271301718
 30
0.0
  0
VERTEX
  5
3BE
330
3BC
100
AcDbEntity
  8
Layer 1
 62
     7
370
    25
100
AcDbVertex
100
AcDb2dVertex
 10
823.2889375111916
 20
730.628271301718
 30
0.0
  0
SEQEND
  5
3BF
330
3BC
100
AcDbEntity
  8
Layer 1
370
    25
  0
POLYLINE
  5
3C0
330
3C
100
AcDbEntity
  8
Layer 1
 62
     7
370
    25
100
AcDb2dPolyline
 66
     1
 10
0.0
 20
0.0
 30
0.0
  0
VERTEX
  5
3C1
330
3C0
100
AcDbEntity
  8
Layer 1
 62
     7
370
    25
100
AcDbVertex
100
AcDb2dVertex
 10
823.2889375111916
 20
730.628271301718
 30
0.0
  0
VERTEX
  5
3C2
330
3C0
100
AcDbEntity
  8
Layer 1
 62
     7
370
    25
100
AcDbVertex
100
AcDb2dVertex
 10
816.2333819574001
 20
735.9195934575132
 30
0.0
  0
SEQEND
  5
3C3
330
3C0
100
AcDbEntity
  8
Layer 1
370
    25
  0
POLYLINE
  5
3C4
330
3C
100
AcDbEntity
  8
Layer 1
 62
     7
370
    25
100
AcDb2dPolyline
 66
     1
 10
0.0
 20
0.0
 30
0.0
  0
VERTEX
  5
3C5
330
3C4
100
AcDbEntity
  8
Layer 1
 62
     7
370
    25
100
AcDbVertex
100
AcDb2dVertex
 10
816.2333819574001
 20
735.9195934575132
 30
0.0
  0
VERTEX
  5
3C6
330
3C4
100
AcDbEntity
  8
Layer 1
 62
     7
370
    25
100
AcDbVertex
100
AcDb2dVertex
 10
816.2333819574001
 20
741.211260122857
 30
0.0
  0
SEQEND
  5
3C7
330
3C4
100
AcDbEntity
  8
Layer 1
370
    25
  0
POLYLINE
  5
3C8
330
3C
100
AcDbEntity
  8
Layer 1
 62
     7
370
    25
100
AcDb2dPolyline
 66
     1
 10
0.0
 20
0.0
 30
0.0
  0
VERTEX
  5
3C9
330
3C8
100
AcDbEntity
  8
Layer 1
 62
     7
370
    25
100
AcDbVertex
100
AcDb2dVertex
 10
816.2333819574001
 20
741.211260122857
 30
0.0
  0
VERTEX
  5
3CA
330
3C8
100
AcDbEntity
  8
Layer 1
 62
     7
370
    25
100
AcDbVertex
100
AcDb2dVertex
 10
823.2889375111916
 20
746.5029267882007
 30
0.0
  0
SEQEND
  5
3CB
330
3C8
100
AcDbEntity
  8
Layer 1
370
    25
  0
POLYLINE
  5
3CC
330
3C
100
AcDbEntity
  8
Layer 1
 62
     7
370
    25
100
AcDb2dPolyline
 66
     1
 10
0.0
 20
0.0
 30
0.0
  0
VERTEX
  5
3CD
330
3CC
100
AcDbEntity
  8
Layer 1
 62
     7
370
    25
100
AcDbVertex
100
AcDb2dVertex
 10
823.2889375111916
 20
746.5029267882007
 30
0.0
  0
VERTEX
  5
3CE
330
3CC
100
AcDbEntity
  8
Layer 1
 62
     7
370
    25
100
AcDbVertex
100
AcDb2dVertex
 10
851.5111597263584
 20
746.5029267882007
 30
0.0
  0
SEQEND
  5
3CF
330
3CC
100
AcDbEntity
  8
Layer 1
370
    25
  0
POLYLINE
  5
3D0
330
3C
100
AcDbEntity
  8
Layer 1
 62
     7
370
    25
100
AcDb2dPolyline
 66
     1
 10
0.0
 20
0.0
 30
0.0
  0
VERTEX
  5
3D1
330
3D0
100
AcDbEntity
  8
Layer 1
 62
     7
370
    25
100
AcDbVertex
100
AcDb2dVertex
 10
851.5111597263584
 20
746.5029267882007
 30
0.0
  0
VERTEX
  5
3D2
330
3D0
100
AcDbEntity
  8
Layer 1
 62
     7
370
    25
100
AcDbVertex
100
AcDb2dVertex
 10
858.566026261053
 20
741.211260122857
 30
0.0
  0
SEQEND
  5
3D3
330
3D0
100
AcDbEntity
  8
Layer 1
370
    25
  0
POLYLINE
  5
3D4
330
3C
100
AcDbEntity
  8
Layer 1
 62
     7
370
    25
100
AcDb2dPolyline
 66
     1
 10
0.0
 20
0.0
 30
0.0
  0
VERTEX
  5
3D5
330
3D4
100
AcDbEntity
  8
Layer 1
 62
     7
370
    25
100
AcDbVertex
100
AcDb2dVertex
 10
858.566026261053
 20
741.211260122857
 30
0.0
  0
VERTEX
  5
3D6
330
3D4
100
AcDbEntity
  8
Layer 1
 62
     7
370
    25
100
AcDbVertex
100
AcDb2dVertex
 10
858.566026261053
 20
735.9195934575132
 30
0.0
  0
SEQEND
  5
3D7
330
3D4
100
AcDbEntity
  8
Layer 1
370
    25
  0
POLYLINE
  5
3D8
330
3C
100
AcDbEntity
  8
Layer 1
 62
     7
370
    25
100
AcDb2dPolyline
 66
     1
 10
0.0
 20
0.0
 30
0.0
  0
VERTEX
  5
3D9
330
3D8
100
AcDbEntity
  8
Layer 1
 62
     7
370
    25
100
AcDbVertex
100
AcDb2dVertex
 10
851.5111597263584
 20
757.0864323736624
 30
0.0
  0
VERTEX
  5
3DA
330
3D8
100
AcDbEntity
  8
Layer 1
 62
     7
370
    25
100
AcDbVertex
100
AcDb2dVertex
 10
858.566026261053
 20
762.3777545294577
 30
0.0
  0
SEQEND
  5
3DB
330
3D8
100
AcDbEntity
  8
Layer 1
370
    25
  0
POLYLINE
  5
3DC
330
3C
100
AcDbEntity
  8
Layer 1
 62
     7
370
    25
100
AcDb2dPolyline
 66
     1
 10
0.0
 20
0.0
 30
0.0
  0
VERTEX
  5
3DD
330
3DC
100
AcDbEntity
  8
Layer 1
 62
     7
370
    25
100
AcDbVertex
100
AcDb2dVertex
 10
858.566026261053
 20
762.3777545294577
 30
0.0
  0
VERTEX
  5
3DE
330
3DC
100
AcDbEntity
  8
Layer 1
 62
     7
370
    25
100
AcDbVertex
100
AcDb2dVertex
 10
858.566026261053
 20
772.9612601149195
 30
0.0
  0
SEQEND
  5
3DF
330
3DC
100
AcDbEntity
  8
Layer 1
370
    25
  0
POLYLINE
  5
3E0
330
3C
100
AcDbEntity
  8
Layer 1
 62
     7
370
    25
100
AcDb2dPolyline
 66
     1
 10
0.0
 20
0.0
 30
0.0
  0
VERTEX
  5
3E1
330
3E0
100
AcDbEntity
  8
Layer 1
 62
     7
370
    25
100
AcDbVertex
100
AcDb2dVertex
 10
858.566026261053
 20
772.9612601149195
 30
0.0
  0
VERTEX
  5
3E2
330
3E0
100
AcDbEntity
  8
Layer 1
 62
     7
370
    25
100
AcDbVertex
100
AcDb2dVertex
 10
851.5111597263584
 20
778.2529267802632
 30
0.0
  0
SEQEND
  5
3E3
330
3E0
100
AcDbEntity
  8
Layer 1
370
    25
  0
POLYLINE
  5
3E4
330
3C
100
AcDbEntity
  8
Layer 1
 62
     7
370
    25
100
AcDb2dPolyline
 66
     1
 10
0.0
 20
0.0
 30
0.0
  0
VERTEX
  5
3E5
330
3E4
100
AcDbEntity
  8
Layer 1
 62
     7
370
    25
100
AcDbVertex
100
AcDb2dVertex
 10
851.5111597263584
 20
778.2529267802632
 30
0.0
  0
VERTEX
  5
3E6
330
3E4
100
AcDbEntity
  8
Layer 1
 62
     7
370
    25
100
AcDbVertex
100
AcDb2dVertex
 10
837.399359599678
 20
778.2529267802632
 30
0.0
  0
SEQEND
  5
3E7
330
3E4
100
AcDbEntity
  8
Layer 1
370
    25
  0
POLYLINE
  5
3E8
330
3C
100
AcDbEntity
  8
Layer 1
 62
     7
370
    25
100
AcDb2dPolyline
 66
     1
 10
0.0
 20
0.0
 30
0.0
  0
VERTEX
  5
3E9
330
3E8
100
AcDbEntity
  8
Layer 1
 62
     7
370
    25
100
AcDbVertex
100
AcDb2dVertex
 10
837.399359599678
 20
778.2529267802632
 30
0.0
  0
VERTEX
  5
3EA
330
3E8
100
AcDbEntity
  8
Layer 1
 62
     7
370
    25
100
AcDbVertex
100
AcDb2dVertex
 10
830.3438040458863
 20
772.9612601149195
 30
0.0
  0
SEQEND
  5
3EB
330
3E8
100
AcDbEntity
  8
Layer 1
370
    25
  0
POLYLINE
  5
3EC
330
3C
100
AcDbEntity
  8
Layer 1
 62
     7
370
    25
100
AcDb2dPolyline
 66
     1
 10
0.0
 20
0.0
 30
0.0
  0
VERTEX
  5
3ED
330
3EC
100
AcDbEntity
  8
Layer 1
 62
     7
370
    25
100
AcDbVertex
100
AcDb2dVertex
 10
830.3438040458863
 20
772.9612601149195
 30
0.0
  0
VERTEX
  5
3EE
330
3EC
100
AcDbEntity
  8
Layer 1
 62
     7
370
    25
100
AcDbVertex
100
AcDb2dVertex
 10
830.3438040458863
 20
757.0864323736624
 30
0.0
  0
SEQEND
  5
3EF
330
3EC
100
AcDbEntity
  8
Layer 1
370
    25
  0
POLYLINE
  5
3F0
330
3C
100
AcDbEntity
  8
Layer 1
 62
     7
370
    25
100
AcDb2dPolyline
 66
     1
 10
0.0
 20
0.0
 30
0.0
  0
VERTEX
  5
3F1
330
3F0
100
AcDbEntity
  8
Layer 1
 62
     7
370
    25
100
AcDbVertex
100
AcDb2dVertex
 10
830.3438040458863
 20
757.0864323736624
 30
0.0
  0
VERTEX
  5
3F2
330
3F0
100
AcDbEntity
  8
Layer 1
 62
     7
370
    25
100
AcDbVertex
100
AcDb2dVertex
 10
816.2333819574001
 20
757.0864323736624
 30
0.0
  0
SEQEND
  5
3F3
330
3F0
100
AcDbEntity
  8
Layer 1
370
    25
  0
POLYLINE
  5
3F4
330
3C
100
AcDbEntity
  8
Layer 1
 62
     7
370
    25
100
AcDb2dPolyline
 66
     1
 10
0.0
 20
0.0
 30
0.0
  0
VERTEX
  5
3F5
330
3F4
100
AcDbEntity
  8
Layer 1
 62
     7
370
    25
100
AcDbVertex
100
AcDb2dVertex
 10
816.2333819574001
 20
757.0864323736624
 30
0.0
  0
VERTEX
  5
3F6
330
3F4
100
AcDbEntity
  8
Layer 1
 62
     7
370
    25
100
AcDbVertex
100
AcDb2dVertex
 10
816.2333819574001
 20
778.2529267802632
 30
0.0
  0
SEQEND
  5
3F7
330
3F4
100
AcDbEntity
  8
Layer 1
370
    25
  0
POLYLINE
  5
3F8
330
3C
100
AcDbEntity
  8
Layer 1
370
     0
100
AcDb2dPolyline
 66
     1
 10
0.0
 20
0.0
 30
0.0
  0
VERTEX
  5
3F9
330
3F8
100
AcDbEntity
  8
Layer 1
370
     0
100
AcDbVertex
100
AcDb2dVertex
 10
700.8040796859101
 20
1210.465476856672
 30
0.0
  0
VERTEX
  5
3FA
330
3F8
100
AcDbEntity
  8
Layer 1
370
     0
100
AcDbVertex
100
AcDb2dVertex
 10
670.8034991812575
 20
1205.46526526938
 30
0.0
  0
VERTEX
  5
3FB
330
3F8
100
AcDbEntity
  8
Layer 1
370
     0
100
AcDbVertex
100
AcDb2dVertex
 10
670.8034991812575
 20
1215.465516189189
 30
0.0
  0
SEQEND
  5
3FC
330
3F8
100
AcDbEntity
  8
Layer 1
370
     0
  0
HATCH
  5
3FD
330
3C
100
AcDbEntity
  8
Layer 1
 62
     7
100
AcDbHatch
 10
0.0
 20
0.0
 30
0.0
210
0.0
220
0.0
230
1.0
  2
SOLID
 70
     1
 71
     0
 91
        1
 92
        1
 93
        3
 72
     1
 10
700.8040796859101
 20
1210.465476856672
 11
670.8034991812575
 21
1205.46526526938
 72
     1
 10
670.8034991812575
 20
1205.46526526938
 11
670.8034991812575
 21
1215.465516189189
 72
     1
 10
670.8034991812575
 20
1215.465516189189
 11
700.8040796859101
 21
1210.465476856672
 97
        0
 75
     2
 76
     1
 98
        0
  0
POLYLINE
  5
3FE
330
3C
100
AcDbEntity
  8
Layer 1
370
     0
100
AcDb2dPolyline
 66
     1
 10
0.0
 20
0.0
 30
0.0
  0
VERTEX
  5
3FF
330
3FE
100
AcDbEntity
  8
Layer 1
370
     0
100
AcDbVertex
100
AcDb2dVertex
 10
270.8041421849031
 20
1210.465476856672
 30
0.0
  0
VERTEX
  5
400
330
3FE
100
AcDbEntity
  8
Layer 1
370
     0
100
AcDbVertex
100
AcDb2dVertex
 10
300.804205925233
 20
1215.465516189189
 30
0.0
  0
VERTEX
  5
401
330
3FE
100
AcDbEntity
  8
Layer 1
370
     0
100
AcDbVertex
100
AcDb2dVertex
 10
300.804205925233
 20
1205.46526526938
 30
0.0
  0
SEQEND
  5
402
330
3FE
100
AcDbEntity
  8
Layer 1
370
     0
  0
HATCH
  5
403
330
3C
100
AcDbEntity
  8
Layer 1
 62
     7
100
AcDbHatch
 10
0.0
 20
0.0
 30
0.0
210
0.0
220
0.0
230
1.0
  2
SOLID
 70
     1
 71
     0
 91
        1
 92
        1
 93
        3
 72
     1
 10
270.8041421849031
 20
1210.465476856672
 11
300.804205925233
 21
1215.465516189189
 72
     1
 10
300.804205925233
 20
1215.465516189189
 11
300.804205925233
 21
1205.46526526938
 72
     1
 10
300.804205925233
 20
1205.46526526938
 11
270.8041421849031
 21
1210.465476856672
 97
        0
 75
     2
 76
     1
 98
        0
  0
POLYLINE
  5
404
330
3C
100
AcDbEntity
  8
Layer 1
 62
     7
370
    25
100
AcDb2dPolyline
 66
     1
 10
0.0
 20
0.0
 30
0.0
  0
VERTEX
  5
405
330
404
100
AcDbEntity
  8
Layer 1
 62
     7
370
    25
100
AcDbVertex
100
AcDb2dVertex
 10
700.8040796859101
 20
1081.276118707545
 30
0.0
  0
VERTEX
  5
406
330
404
100
AcDbEntity
  8
Layer 1
 62
     7
370
    25
100
AcDbVertex
100
AcDb2dVertex
 10
700.8040796859101
 20
1220.465211012158
 30
0.0
  0
SEQEND
  5
407
330
404
100
AcDbEntity
  8
Layer 1
370
    25
  0
POLYLINE
  5
408
330
3C
100
AcDbEntity
  8
Layer 1
 62
     7
370
    25
100
AcDb2dPolyline
 66
     1
 10
0.0
 20
0.0
 30
0.0
  0
VERTEX
  5
409
330
408
100
AcDbEntity
  8
Layer 1
 62
     7
370
    25
100
AcDbVertex
100
AcDb2dVertex
 10
270.8041421849031
 20
1081.276118707545
 30
0.0
  0
VERTEX
  5
40A
330
408
100
AcDbEntity
  8
Layer 1
 62
     7
370
    25
100
AcDbVertex
100
AcDb2dVertex
 10
270.8041421849031
 20
1220.465211012158
 30
0.0
  0
SEQEND
  5
40B
330
408
100
AcDbEntity
  8
Layer 1
370
    25
  0
POLYLINE
  5
40C
330
3C
100
AcDbEntity
  8
Layer 1
 62
     7
370
    25
100
AcDb2dPolyline
 66
     1
 10
0.0
 20
0.0
 30
0.0
  0
VERTEX
  5
40D
330
40C
100
AcDbEntity
  8
Layer 1
 62
     7
370
    25
100
AcDbVertex
100
AcDb2dVertex
 10
700.8040796859101
 20
1210.465476856672
 30
0.0
  0
VERTEX
  5
40E
330
40C
100
AcDbEntity
  8
Layer 1
 62
     7
370
    25
100
AcDbVertex
100
AcDb2dVertex
 10
270.8041421849031
 20
1210.465476856672
 30
0.0
  0
SEQEND
  5
40F
330
40C
100
AcDbEntity
  8
Layer 1
370
    25
  0
POLYLINE
  5
410
330
3C
100
AcDbEntity
  8
Layer 1
 62
     7
370
    25
100
AcDb2dPolyline
 66
     1
 10
0.0
 20
0.0
 30
0.0
  0
VERTEX
  5
411
330
410
100
AcDbEntity
  8
Layer 1
 62
     7
370
    25
100
AcDbVertex
100
AcDb2dVertex
 10
437.5910331479807
 20
1222.702628275053
 30
0.0
  0
VERTEX
  5
412
330
410
100
AcDbEntity
  8
Layer 1
 62
     7
370
    25
100
AcDbVertex
100
AcDb2dVertex
 10
437.5910331479807
 20
1265.035617088255
 30
0.0
  0
SEQEND
  5
413
330
410
100
AcDbEntity
  8
Layer 1
370
    25
  0
POLYLINE
  5
414
330
3C
100
AcDbEntity
  8
Layer 1
 62
     7
370
    25
100
AcDb2dPolyline
 66
     1
 10
0.0
 20
0.0
 30
0.0
  0
VERTEX
  5
415
330
414
100
AcDbEntity
  8
Layer 1
 62
     7
370
    25
100
AcDbVertex
100
AcDb2dVertex
 10
437.5910331479807
 20
1265.035617088255
 30
0.0
  0
VERTEX
  5
416
330
414
100
AcDbEntity
  8
Layer 1
 62
     7
370
    25
100
AcDbVertex
100
AcDb2dVertex
 10
421.7160331519495
 20
1236.813739382637
 30
0.0
  0
SEQEND
  5
417
330
414
100
AcDbEntity
  8
Layer 1
370
    25
  0
POLYLINE
  5
418
330
3C
100
AcDbEntity
  8
Layer 1
 62
     7
370
    25
100
AcDb2dPolyline
 66
     1
 10
0.0
 20
0.0
 30
0.0
  0
VERTEX
  5
419
330
418
100
AcDbEntity
  8
Layer 1
 62
     7
370
    25
100
AcDbVertex
100
AcDb2dVertex
 10
421.7160331519495
 20
1236.813739382637
 30
0.0
  0
VERTEX
  5
41A
330
418
100
AcDbEntity
  8
Layer 1
 62
     7
370
    25
100
AcDbVertex
100
AcDb2dVertex
 10
442.883044322873
 20
1236.813739382637
 30
0.0
  0
SEQEND
  5
41B
330
418
100
AcDbEntity
  8
Layer 1
370
    25
  0
POLYLINE
  5
41C
330
3C
100
AcDbEntity
  8
Layer 1
 62
     7
370
    25
100
AcDb2dPolyline
 66
     1
 10
0.0
 20
0.0
 30
0.0
  0
VERTEX
  5
41D
330
41C
100
AcDbEntity
  8
Layer 1
 62
     7
370
    25
100
AcDbVertex
100
AcDb2dVertex
 10
453.4663776535605
 20
1229.758011574071
 30
0.0
  0
VERTEX
  5
41E
330
41C
100
AcDbEntity
  8
Layer 1
 62
     7
370
    25
100
AcDbVertex
100
AcDb2dVertex
 10
458.7580443189042
 20
1222.702628275053
 30
0.0
  0
SEQEND
  5
41F
330
41C
100
AcDbEntity
  8
Layer 1
370
    25
  0
POLYLINE
  5
420
330
3C
100
AcDbEntity
  8
Layer 1
 62
     7
370
    25
100
AcDb2dPolyline
 66
     1
 10
0.0
 20
0.0
 30
0.0
  0
VERTEX
  5
421
330
420
100
AcDbEntity
  8
Layer 1
 62
     7
370
    25
100
AcDbVertex
100
AcDb2dVertex
 10
458.7580443189042
 20
1222.702628275053
 30
0.0
  0
VERTEX
  5
422
330
420
100
AcDbEntity
  8
Layer 1
 62
     7
370
    25
100
AcDbVertex
100
AcDb2dVertex
 10
469.3413776495918
 20
1222.702628275053
 30
0.0
  0
SEQEND
  5
423
330
420
100
AcDbEntity
  8
Layer 1
370
    25
  0
POLYLINE
  5
424
330
3C
100
AcDbEntity
  8
Layer 1
 62
     7
370
    25
100
AcDb2dPolyline
 66
     1
 10
0.0
 20
0.0
 30
0.0
  0
VERTEX
  5
425
330
424
100
AcDbEntity
  8
Layer 1
 62
     7
370
    25
100
AcDbVertex
100
AcDb2dVertex
 10
469.3413776495918
 20
1222.702628275053
 30
0.0
  0
VERTEX
  5
426
330
424
100
AcDbEntity
  8
Layer 1
 62
     7
370
    25
100
AcDbVertex
100
AcDb2dVertex
 10
474.6323552958385
 20
1229.758011574071
 30
0.0
  0
SEQEND
  5
427
330
424
100
AcDbEntity
  8
Layer 1
370
    25
  0
POLYLINE
  5
428
330
3C
100
AcDbEntity
  8
Layer 1
 62
     7
370
    25
100
AcDb2dPolyline
 66
     1
 10
0.0
 20
0.0
 30
0.0
  0
VERTEX
  5
429
330
428
100
AcDbEntity
  8
Layer 1
 62
     7
370
    25
100
AcDbVertex
100
AcDb2dVertex
 10
474.6323552958385
 20
1229.758011574071
 30
0.0
  0
VERTEX
  5
42A
330
428
100
AcDbEntity
  8
Layer 1
 62
     7
370
    25
100
AcDbVertex
100
AcDb2dVertex
 10
474.6323552958385
 20
1236.813739382637
 30
0.0
  0
SEQEND
  5
42B
330
428
100
AcDbEntity
  8
Layer 1
370
    25
  0
POLYLINE
  5
42C
330
3C
100
AcDbEntity
  8
Layer 1
 62
     7
370
    25
100
AcDb2dPolyline
 66
     1
 10
0.0
 20
0.0
 30
0.0
  0
VERTEX
  5
42D
330
42C
100
AcDbEntity
  8
Layer 1
 62
     7
370
    25
100
AcDbVertex
100
AcDb2dVertex
 10
474.6323552958385
 20
1236.813739382637
 30
0.0
  0
VERTEX
  5
42E
330
42C
100
AcDbEntity
  8
Layer 1
 62
     7
370
    25
100
AcDbVertex
100
AcDb2dVertex
 10
469.3413776495918
 20
1243.869122681654
 30
0.0
  0
SEQEND
  5
42F
330
42C
100
AcDbEntity
  8
Layer 1
370
    25
  0
POLYLINE
  5
430
330
3C
100
AcDbEntity
  8
Layer 1
 62
     7
370
    25
100
AcDb2dPolyline
 66
     1
 10
0.0
 20
0.0
 30
0.0
  0
VERTEX
  5
431
330
430
100
AcDbEntity
  8
Layer 1
 62
     7
370
    25
100
AcDbVertex
100
AcDb2dVertex
 10
469.3413776495918
 20
1243.869122681654
 30
0.0
  0
VERTEX
  5
432
330
430
100
AcDbEntity
  8
Layer 1
 62
     7
370
    25
100
AcDbVertex
100
AcDb2dVertex
 10
464.049710984248
 20
1243.869122681654
 30
0.0
  0
SEQEND
  5
433
330
430
100
AcDbEntity
  8
Layer 1
370
    25
  0
POLYLINE
  5
434
330
3C
100
AcDbEntity
  8
Layer 1
 62
     7
370
    25
100
AcDb2dPolyline
 66
     1
 10
0.0
 20
0.0
 30
0.0
  0
VERTEX
  5
435
330
434
100
AcDbEntity
  8
Layer 1
 62
     7
370
    25
100
AcDbVertex
100
AcDb2dVertex
 10
469.3413776495918
 20
1243.869122681654
 30
0.0
  0
VERTEX
  5
436
330
434
100
AcDbEntity
  8
Layer 1
 62
     7
370
    25
100
AcDbVertex
100
AcDb2dVertex
 10
474.6323552958385
 20
1250.92485049022
 30
0.0
  0
SEQEND
  5
437
330
434
100
AcDbEntity
  8
Layer 1
370
    25
  0
POLYLINE
  5
438
330
3C
100
AcDbEntity
  8
Layer 1
 62
     7
370
    25
100
AcDb2dPolyline
 66
     1
 10
0.0
 20
0.0
 30
0.0
  0
VERTEX
  5
439
330
438
100
AcDbEntity
  8
Layer 1
 62
     7
370
    25
100
AcDbVertex
100
AcDb2dVertex
 10
474.6323552958385
 20
1250.92485049022
 30
0.0
  0
VERTEX
  5
43A
330
438
100
AcDbEntity
  8
Layer 1
 62
     7
370
    25
100
AcDbVertex
100
AcDb2dVertex
 10
474.6323552958385
 20
1257.980233789238
 30
0.0
  0
SEQEND
  5
43B
330
438
100
AcDbEntity
  8
Layer 1
370
    25
  0
POLYLINE
  5
43C
330
3C
100
AcDbEntity
  8
Layer 1
 62
     7
370
    25
100
AcDb2dPolyline
 66
     1
 10
0.0
 20
0.0
 30
0.0
  0
VERTEX
  5
43D
330
43C
100
AcDbEntity
  8
Layer 1
 62
     7
370
    25
100
AcDbVertex
100
AcDb2dVertex
 10
474.6323552958385
 20
1257.980233789238
 30
0.0
  0
VERTEX
  5
43E
330
43C
100
AcDbEntity
  8
Layer 1
 62
     7
370
    25
100
AcDbVertex
100
AcDb2dVertex
 10
469.3413776495918
 20
1265.035617088255
 30
0.0
  0
SEQEND
  5
43F
330
43C
100
AcDbEntity
  8
Layer 1
370
    25
  0
POLYLINE
  5
440
330
3C
100
AcDbEntity
  8
Layer 1
 62
     7
370
    25
100
AcDb2dPolyline
 66
     1
 10
0.0
 20
0.0
 30
0.0
  0
VERTEX
  5
441
330
440
100
AcDbEntity
  8
Layer 1
 62
     7
370
    25
100
AcDbVertex
100
AcDb2dVertex
 10
469.3413776495918
 20
1265.035617088255
 30
0.0
  0
VERTEX
  5
442
330
440
100
AcDbEntity
  8
Layer 1
 62
     7
370
    25
100
AcDbVertex
100
AcDb2dVertex
 10
458.7580443189042
 20
1265.035617088255
 30
0.0
  0
SEQEND
  5
443
330
440
100
AcDbEntity
  8
Layer 1
370
    25
  0
POLYLINE
  5
444
330
3C
100
AcDbEntity
  8
Layer 1
 62
     7
370
    25
100
AcDb2dPolyline
 66
     1
 10
0.0
 20
0.0
 30
0.0
  0
VERTEX
  5
445
330
444
100
AcDbEntity
  8
Layer 1
 62
     7
370
    25
100
AcDbVertex
100
AcDb2dVertex
 10
458.7580443189042
 20
1265.035617088255
 30
0.0
  0
VERTEX
  5
446
330
444
100
AcDbEntity
  8
Layer 1
 62
     7
370
    25
100
AcDbVertex
100
AcDb2dVertex
 10
453.4663776535605
 20
1257.980233789238
 30
0.0
  0
SEQEND
  5
447
330
444
100
AcDbEntity
  8
Layer 1
370
    25
  0
POLYLINE
  5
448
330
3C
100
AcDbEntity
  8
Layer 1
 62
     7
370
    25
100
AcDb2dPolyline
 66
     1
 10
0.0
 20
0.0
 30
0.0
  0
VERTEX
  5
449
330
448
100
AcDbEntity
  8
Layer 1
 62
     7
370
    25
100
AcDbVertex
100
AcDb2dVertex
 10
490.5076998014183
 20
1222.702628275053
 30
0.0
  0
VERTEX
  5
44A
330
448
100
AcDbEntity
  8
Layer 1
 62
     7
370
    25
100
AcDbVertex
100
AcDb2dVertex
 10
485.2156886265259
 20
1229.758011574071
 30
0.0
  0
SEQEND
  5
44B
330
448
100
AcDbEntity
  8
Layer 1
370
    25
  0
POLYLINE
  5
44C
330
3C
100
AcDbEntity
  8
Layer 1
 62
     7
370
    25
100
AcDb2dPolyline
 66
     1
 10
0.0
 20
0.0
 30
0.0
  0
VERTEX
  5
44D
330
44C
100
AcDbEntity
  8
Layer 1
 62
     7
370
    25
100
AcDbVertex
100
AcDb2dVertex
 10
485.2156886265259
 20
1229.758011574071
 30
0.0
  0
VERTEX
  5
44E
330
44C
100
AcDbEntity
  8
Layer 1
 62
     7
370
    25
100
AcDbVertex
100
AcDb2dVertex
 10
485.2156886265259
 20
1257.980233789238
 30
0.0
  0
SEQEND
  5
44F
330
44C
100
AcDbEntity
  8
Layer 1
370
    25
  0
POLYLINE
  5
450
330
3C
100
AcDbEntity
  8
Layer 1
 62
     7
370
    25
100
AcDb2dPolyline
 66
     1
 10
0.0
 20
0.0
 30
0.0
  0
VERTEX
  5
451
330
450
100
AcDbEntity
  8
Layer 1
 62
     7
370
    25
100
AcDbVertex
100
AcDb2dVertex
 10
485.2156886265259
 20
1257.980233789238
 30
0.0
  0
VERTEX
  5
452
330
450
100
AcDbEntity
  8
Layer 1
 62
     7
370
    25
100
AcDbVertex
100
AcDb2dVertex
 10
490.5076998014183
 20
1265.035617088255
 30
0.0
  0
SEQEND
  5
453
330
450
100
AcDbEntity
  8
Layer 1
370
    25
  0
POLYLINE
  5
454
330
3C
100
AcDbEntity
  8
Layer 1
 62
     7
370
    25
100
AcDb2dPolyline
 66
     1
 10
0.0
 20
0.0
 30
0.0
  0
VERTEX
  5
455
330
454
100
AcDbEntity
  8
Layer 1
 62
     7
370
    25
100
AcDbVertex
100
AcDb2dVertex
 10
490.5076998014183
 20
1265.035617088255
 30
0.0
  0
VERTEX
  5
456
330
454
100
AcDbEntity
  8
Layer 1
 62
     7
370
    25
100
AcDbVertex
100
AcDb2dVertex
 10
495.799366466762
 20
1265.035617088255
 30
0.0
  0
SEQEND
  5
457
330
454
100
AcDbEntity
  8
Layer 1
370
    25
  0
POLYLINE
  5
458
330
3C
100
AcDbEntity
  8
Layer 1
 62
     7
370
    25
100
AcDb2dPolyline
 66
     1
 10
0.0
 20
0.0
 30
0.0
  0
VERTEX
  5
459
330
458
100
AcDbEntity
  8
Layer 1
 62
     7
370
    25
100
AcDbVertex
100
AcDb2dVertex
 10
495.799366466762
 20
1265.035617088255
 30
0.0
  0
VERTEX
  5
45A
330
458
100
AcDbEntity
  8
Layer 1
 62
     7
370
    25
100
AcDbVertex
100
AcDb2dVertex
 10
501.0910331321057
 20
1257.980233789238
 30
0.0
  0
SEQEND
  5
45B
330
458
100
AcDbEntity
  8
Layer 1
370
    25
  0
POLYLINE
  5
45C
330
3C
100
AcDbEntity
  8
Layer 1
 62
     7
370
    25
100
AcDb2dPolyline
 66
     1
 10
0.0
 20
0.0
 30
0.0
  0
VERTEX
  5
45D
330
45C
100
AcDbEntity
  8
Layer 1
 62
     7
370
    25
100
AcDbVertex
100
AcDb2dVertex
 10
501.0910331321057
 20
1257.980233789238
 30
0.0
  0
VERTEX
  5
45E
330
45C
100
AcDbEntity
  8
Layer 1
 62
     7
370
    25
100
AcDbVertex
100
AcDb2dVertex
 10
501.0910331321057
 20
1229.758011574071
 30
0.0
  0
SEQEND
  5
45F
330
45C
100
AcDbEntity
  8
Layer 1
370
    25
  0
POLYLINE
  5
460
330
3C
100
AcDbEntity
  8
Layer 1
 62
     7
370
    25
100
AcDb2dPolyline
 66
     1
 10
0.0
 20
0.0
 30
0.0
  0
VERTEX
  5
461
330
460
100
AcDbEntity
  8
Layer 1
 62
     7
370
    25
100
AcDbVertex
100
AcDb2dVertex
 10
501.0910331321057
 20
1229.758011574071
 30
0.0
  0
VERTEX
  5
462
330
460
100
AcDbEntity
  8
Layer 1
 62
     7
370
    25
100
AcDbVertex
100
AcDb2dVertex
 10
495.799366466762
 20
1222.702628275053
 30
0.0
  0
SEQEND
  5
463
330
460
100
AcDbEntity
  8
Layer 1
370
    25
  0
POLYLINE
  5
464
330
3C
100
AcDbEntity
  8
Layer 1
 62
     7
370
    25
100
AcDb2dPolyline
 66
     1
 10
0.0
 20
0.0
 30
0.0
  0
VERTEX
  5
465
330
464
100
AcDbEntity
  8
Layer 1
 62
     7
370
    25
100
AcDbVertex
100
AcDb2dVertex
 10
495.799366466762
 20
1222.702628275053
 30
0.0
  0
VERTEX
  5
466
330
464
100
AcDbEntity
  8
Layer 1
 62
     7
370
    25
100
AcDbVertex
100
AcDb2dVertex
 10
490.5076998014183
 20
1222.702628275053
 30
0.0
  0
SEQEND
  5
467
330
464
100
AcDbEntity
  8
Layer 1
370
    25
  0
POLYLINE
  5
468
330
3C
100
AcDbEntity
  8
Layer 1
370
     0
100
AcDb2dPolyline
 66
     1
 10
0.0
 20
0.0
 30
0.0
  0
VERTEX
  5
469
330
468
100
AcDbEntity
  8
Layer 1
370
     0
100
AcDbVertex
100
AcDb2dVertex
 10
295.8045111022641
 20
1140.465442965752
 30
0.0
  0
VERTEX
  5
46A
330
468
100
AcDbEntity
  8
Layer 1
370
     0
100
AcDbVertex
100
AcDb2dVertex
 10
325.8044025878198
 20
1145.465654553043
 30
0.0
  0
VERTEX
  5
46B
330
468
100
AcDbEntity
  8
Layer 1
370
     0
100
AcDbVertex
100
AcDb2dVertex
 10
325.8044025878198
 20
1135.465403633234
 30
0.0
  0
SEQEND
  5
46C
330
468
100
AcDbEntity
  8
Layer 1
370
     0
  0
HATCH
  5
46D
330
3C
100
AcDbEntity
  8
Layer 1
 62
     7
100
AcDbHatch
 10
0.0
 20
0.0
 30
0.0
210
0.0
220
0.0
230
1.0
  2
SOLID
 70
     1
 71
     0
 91
        1
 92
        1
 93
        3
 72
     1
 10
295.8045111022641
 20
1140.465442965752
 11
325.8044025878198
 21
1145.465654553043
 72
     1
 10
325.8044025878198
 20
1145.465654553043
 11
325.8044025878198
 21
1135.465403633234
 72
     1
 10
325.8044025878198
 20
1135.465403633234
 11
295.8045111022641
 21
1140.465442965752
 97
        0
 75
     2
 76
     1
 98
        0
  0
POLYLINE
  5
46E
330
3C
100
AcDbEntity
  8
Layer 1
370
     0
100
AcDb2dPolyline
 66
     1
 10
0.0
 20
0.0
 30
0.0
  0
VERTEX
  5
46F
330
46E
100
AcDbEntity
  8
Layer 1
370
     0
100
AcDbVertex
100
AcDb2dVertex
 10
675.8037107685491
 20
1140.465442965752
 30
0.0
  0
VERTEX
  5
470
330
46E
100
AcDbEntity
  8
Layer 1
370
     0
100
AcDbVertex
100
AcDb2dVertex
 10
645.8038192829936
 20
1135.465403633234
 30
0.0
  0
VERTEX
  5
471
330
46E
100
AcDbEntity
  8
Layer 1
370
     0
100
AcDbVertex
100
AcDb2dVertex
 10
645.8038192829936
 20
1145.465654553043
 30
0.0
  0
SEQEND
  5
472
330
46E
100
AcDbEntity
  8
Layer 1
370
     0
  0
HATCH
  5
473
330
3C
100
AcDbEntity
  8
Layer 1
 62
     7
100
AcDbHatch
 10
0.0
 20
0.0
 30
0.0
210
0.0
220
0.0
230
1.0
  2
SOLID
 70
     1
 71
     0
 91
        1
 92
        1
 93
        3
 72
     1
 10
675.8037107685491
 20
1140.465442965752
 11
645.8038192829936
 21
1135.465403633234
 72
     1
 10
645.8038192829936
 20
1135.465403633234
 11
645.8038192829936
 21
1145.465654553043
 72
     1
 10
645.8038192829936
 20
1145.465654553043
 11
675.8037107685491
 21
1140.465442965752
 97
        0
 75
     2
 76
     1
 98
        0
  0
POLYLINE
  5
474
330
3C
100
AcDbEntity
  8
Layer 1
 62
     7
370
    25
100
AcDb2dPolyline
 66
     1
 10
0.0
 20
0.0
 30
0.0
  0
VERTEX
  5
475
330
474
100
AcDbEntity
  8
Layer 1
 62
     7
370
    25
100
AcDbVertex
100
AcDb2dVertex
 10
295.8045111022641
 20
1081.276118707545
 30
0.0
  0
VERTEX
  5
476
330
474
100
AcDbEntity
  8
Layer 1
 62
     7
370
    25
100
AcDbVertex
100
AcDb2dVertex
 10
295.8045111022641
 20
1150.465349376012
 30
0.0
  0
SEQEND
  5
477
330
474
100
AcDbEntity
  8
Layer 1
370
    25
  0
POLYLINE
  5
478
330
3C
100
AcDbEntity
  8
Layer 1
 62
     7
370
    25
100
AcDb2dPolyline
 66
     1
 10
0.0
 20
0.0
 30
0.0
  0
VERTEX
  5
479
330
478
100
AcDbEntity
  8
Layer 1
 62
     7
370
    25
100
AcDbVertex
100
AcDb2dVertex
 10
675.8037107685491
 20
1081.667998318993
 30
0.0
  0
VERTEX
  5
47A
330
478
100
AcDbEntity
  8
Layer 1
 62
     7
370
    25
100
AcDbVertex
100
AcDb2dVertex
 10
675.8037107685491
 20
1150.465349376012
 30
0.0
  0
SEQEND
  5
47B
330
478
100
AcDbEntity
  8
Layer 1
370
    25
  0
POLYLINE
  5
47C
330
3C
100
AcDbEntity
  8
Layer 1
 62
     7
370
    25
100
AcDb2dPolyline
 66
     1
 10
0.0
 20
0.0
 30
0.0
  0
VERTEX
  5
47D
330
47C
100
AcDbEntity
  8
Layer 1
 62
     7
370
    25
100
AcDbVertex
100
AcDb2dVertex
 10
295.8045111022641
 20
1140.465442965752
 30
0.0
  0
VERTEX
  5
47E
330
47C
100
AcDbEntity
  8
Layer 1
 62
     7
370
    25
100
AcDbVertex
100
AcDb2dVertex
 10
675.8037107685491
 20
1140.465442965752
 30
0.0
  0
SEQEND
  5
47F
330
47C
100
AcDbEntity
  8
Layer 1
370
    25
  0
POLYLINE
  5
480
330
3C
100
AcDbEntity
  8
Layer 1
 62
     7
370
    25
100
AcDb2dPolyline
 66
     1
 10
0.0
 20
0.0
 30
0.0
  0
VERTEX
  5
481
330
480
100
AcDbEntity
  8
Layer 1
 62
     7
370
    25
100
AcDbVertex
100
AcDb2dVertex
 10
421.7160331519495
 20
1159.758149937925
 30
0.0
  0
VERTEX
  5
482
330
480
100
AcDbEntity
  8
Layer 1
 62
     7
370
    25
100
AcDbVertex
100
AcDb2dVertex
 10
427.0076998172933
 20
1152.702766638908
 30
0.0
  0
SEQEND
  5
483
330
480
100
AcDbEntity
  8
Layer 1
370
    25
  0
POLYLINE
  5
484
330
3C
100
AcDbEntity
  8
Layer 1
 62
     7
370
    25
100
AcDb2dPolyline
 66
     1
 10
0.0
 20
0.0
 30
0.0
  0
VERTEX
  5
485
330
484
100
AcDbEntity
  8
Layer 1
 62
     7
370
    25
100
AcDbVertex
100
AcDb2dVertex
 10
427.0076998172933
 20
1152.702766638908
 30
0.0
  0
VERTEX
  5
486
330
484
100
AcDbEntity
  8
Layer 1
 62
     7
370
    25
100
AcDbVertex
100
AcDb2dVertex
 10
437.5910331479807
 20
1152.702766638908
 30
0.0
  0
SEQEND
  5
487
330
484
100
AcDbEntity
  8
Layer 1
370
    25
  0
POLYLINE
  5
488
330
3C
100
AcDbEntity
  8
Layer 1
 62
     7
370
    25
100
AcDb2dPolyline
 66
     1
 10
0.0
 20
0.0
 30
0.0
  0
VERTEX
  5
489
330
488
100
AcDbEntity
  8
Layer 1
 62
     7
370
    25
100
AcDbVertex
100
AcDb2dVertex
 10
437.5910331479807
 20
1152.702766638908
 30
0.0
  0
VERTEX
  5
48A
330
488
100
AcDbEntity
  8
Layer 1
 62
     7
370
    25
100
AcDbVertex
100
AcDb2dVertex
 10
442.883044322873
 20
1159.758149937925
 30
0.0
  0
SEQEND
  5
48B
330
488
100
AcDbEntity
  8
Layer 1
370
    25
  0
POLYLINE
  5
48C
330
3C
100
AcDbEntity
  8
Layer 1
 62
     7
370
    25
100
AcDb2dPolyline
 66
     1
 10
0.0
 20
0.0
 30
0.0
  0
VERTEX
  5
48D
330
48C
100
AcDbEntity
  8
Layer 1
 62
     7
370
    25
100
AcDbVertex
100
AcDb2dVertex
 10
442.883044322873
 20
1159.758149937925
 30
0.0
  0
VERTEX
  5
48E
330
48C
100
AcDbEntity
  8
Layer 1
 62
     7
370
    25
100
AcDbVertex
100
AcDb2dVertex
 10
442.883044322873
 20
1166.813877746491
 30
0.0
  0
SEQEND
  5
48F
330
48C
100
AcDbEntity
  8
Layer 1
370
    25
  0
POLYLINE
  5
490
330
3C
100
AcDbEntity
  8
Layer 1
 62
     7
370
    25
100
AcDb2dPolyline
 66
     1
 10
0.0
 20
0.0
 30
0.0
  0
VERTEX
  5
491
330
490
100
AcDbEntity
  8
Layer 1
 62
     7
370
    25
100
AcDbVertex
100
AcDb2dVertex
 10
442.883044322873
 20
1166.813877746491
 30
0.0
  0
VERTEX
  5
492
330
490
100
AcDbEntity
  8
Layer 1
 62
     7
370
    25
100
AcDbVertex
100
AcDb2dVertex
 10
437.5910331479807
 20
1173.869261045508
 30
0.0
  0
SEQEND
  5
493
330
490
100
AcDbEntity
  8
Layer 1
370
    25
  0
POLYLINE
  5
494
330
3C
100
AcDbEntity
  8
Layer 1
 62
     7
370
    25
100
AcDb2dPolyline
 66
     1
 10
0.0
 20
0.0
 30
0.0
  0
VERTEX
  5
495
330
494
100
AcDbEntity
  8
Layer 1
 62
     7
370
    25
100
AcDbVertex
100
AcDb2dVertex
 10
437.5910331479807
 20
1173.869261045508
 30
0.0
  0
VERTEX
  5
496
330
494
100
AcDbEntity
  8
Layer 1
 62
     7
370
    25
100
AcDbVertex
100
AcDb2dVertex
 10
432.2995387374112
 20
1173.869261045508
 30
0.0
  0
SEQEND
  5
497
330
494
100
AcDbEntity
  8
Layer 1
370
    25
  0
POLYLINE
  5
498
330
3C
100
AcDbEntity
  8
Layer 1
 62
     7
370
    25
100
AcDb2dPolyline
 66
     1
 10
0.0
 20
0.0
 30
0.0
  0
VERTEX
  5
499
330
498
100
AcDbEntity
  8
Layer 1
 62
     7
370
    25
100
AcDbVertex
100
AcDb2dVertex
 10
437.5910331479807
 20
1173.869261045508
 30
0.0
  0
VERTEX
  5
49A
330
498
100
AcDbEntity
  8
Layer 1
 62
     7
370
    25
100
AcDbVertex
100
AcDb2dVertex
 10
442.883044322873
 20
1180.924988854074
 30
0.0
  0
SEQEND
  5
49B
330
498
100
AcDbEntity
  8
Layer 1
370
    25
  0
POLYLINE
  5
49C
330
3C
100
AcDbEntity
  8
Layer 1
 62
     7
370
    25
100
AcDb2dPolyline
 66
     1
 10
0.0
 20
0.0
 30
0.0
  0
VERTEX
  5
49D
330
49C
100
AcDbEntity
  8
Layer 1
 62
     7
370
    25
100
AcDbVertex
100
AcDb2dVertex
 10
442.883044322873
 20
1180.924988854074
 30
0.0
  0
VERTEX
  5
49E
330
49C
100
AcDbEntity
  8
Layer 1
 62
     7
370
    25
100
AcDbVertex
100
AcDb2dVertex
 10
442.883044322873
 20
1187.980372153092
 30
0.0
  0
SEQEND
  5
49F
330
49C
100
AcDbEntity
  8
Layer 1
370
    25
  0
POLYLINE
  5
4A0
330
3C
100
AcDbEntity
  8
Layer 1
 62
     7
370
    25
100
AcDb2dPolyline
 66
     1
 10
0.0
 20
0.0
 30
0.0
  0
VERTEX
  5
4A1
330
4A0
100
AcDbEntity
  8
Layer 1
 62
     7
370
    25
100
AcDbVertex
100
AcDb2dVertex
 10
442.883044322873
 20
1187.980372153092
 30
0.0
  0
VERTEX
  5
4A2
330
4A0
100
AcDbEntity
  8
Layer 1
 62
     7
370
    25
100
AcDbVertex
100
AcDb2dVertex
 10
437.5910331479807
 20
1195.036099961658
 30
0.0
  0
SEQEND
  5
4A3
330
4A0
100
AcDbEntity
  8
Layer 1
370
    25
  0
POLYLINE
  5
4A4
330
3C
100
AcDbEntity
  8
Layer 1
 62
     7
370
    25
100
AcDb2dPolyline
 66
     1
 10
0.0
 20
0.0
 30
0.0
  0
VERTEX
  5
4A5
330
4A4
100
AcDbEntity
  8
Layer 1
 62
     7
370
    25
100
AcDbVertex
100
AcDb2dVertex
 10
437.5910331479807
 20
1195.036099961658
 30
0.0
  0
VERTEX
  5
4A6
330
4A4
100
AcDbEntity
  8
Layer 1
 62
     7
370
    25
100
AcDbVertex
100
AcDb2dVertex
 10
427.0076998172933
 20
1195.036099961658
 30
0.0
  0
SEQEND
  5
4A7
330
4A4
100
AcDbEntity
  8
Layer 1
370
    25
  0
POLYLINE
  5
4A8
330
3C
100
AcDbEntity
  8
Layer 1
 62
     7
370
    25
100
AcDb2dPolyline
 66
     1
 10
0.0
 20
0.0
 30
0.0
  0
VERTEX
  5
4A9
330
4A8
100
AcDbEntity
  8
Layer 1
 62
     7
370
    25
100
AcDbVertex
100
AcDb2dVertex
 10
427.0076998172933
 20
1195.036099961658
 30
0.0
  0
VERTEX
  5
4AA
330
4A8
100
AcDbEntity
  8
Layer 1
 62
     7
370
    25
100
AcDbVertex
100
AcDb2dVertex
 10
421.7160331519495
 20
1187.980372153092
 30
0.0
  0
SEQEND
  5
4AB
330
4A8
100
AcDbEntity
  8
Layer 1
370
    25
  0
POLYLINE
  5
4AC
330
3C
100
AcDbEntity
  8
Layer 1
 62
     7
370
    25
100
AcDb2dPolyline
 66
     1
 10
0.0
 20
0.0
 30
0.0
  0
VERTEX
  5
4AD
330
4AC
100
AcDbEntity
  8
Layer 1
 62
     7
370
    25
100
AcDbVertex
100
AcDb2dVertex
 10
458.7580443189042
 20
1152.702766638908
 30
0.0
  0
VERTEX
  5
4AE
330
4AC
100
AcDbEntity
  8
Layer 1
 62
     7
370
    25
100
AcDbVertex
100
AcDb2dVertex
 10
469.3413776495918
 20
1152.702766638908
 30
0.0
  0
SEQEND
  5
4AF
330
4AC
100
AcDbEntity
  8
Layer 1
370
    25
  0
POLYLINE
  5
4B0
330
3C
100
AcDbEntity
  8
Layer 1
 62
     7
370
    25
100
AcDb2dPolyline
 66
     1
 10
0.0
 20
0.0
 30
0.0
  0
VERTEX
  5
4B1
330
4B0
100
AcDbEntity
  8
Layer 1
 62
     7
370
    25
100
AcDbVertex
100
AcDb2dVertex
 10
469.3413776495918
 20
1152.702766638908
 30
0.0
  0
VERTEX
  5
4B2
330
4B0
100
AcDbEntity
  8
Layer 1
 62
     7
370
    25
100
AcDbVertex
100
AcDb2dVertex
 10
474.6323552958385
 20
1159.758149937925
 30
0.0
  0
SEQEND
  5
4B3
330
4B0
100
AcDbEntity
  8
Layer 1
370
    25
  0
POLYLINE
  5
4B4
330
3C
100
AcDbEntity
  8
Layer 1
 62
     7
370
    25
100
AcDb2dPolyline
 66
     1
 10
0.0
 20
0.0
 30
0.0
  0
VERTEX
  5
4B5
330
4B4
100
AcDbEntity
  8
Layer 1
 62
     7
370
    25
100
AcDbVertex
100
AcDb2dVertex
 10
474.6323552958385
 20
1159.758149937925
 30
0.0
  0
VERTEX
  5
4B6
330
4B4
100
AcDbEntity
  8
Layer 1
 62
     7
370
    25
100
AcDbVertex
100
AcDb2dVertex
 10
474.6323552958385
 20
1166.813877746491
 30
0.0
  0
SEQEND
  5
4B7
330
4B4
100
AcDbEntity
  8
Layer 1
370
    25
  0
POLYLINE
  5
4B8
330
3C
100
AcDbEntity
  8
Layer 1
 62
     7
370
    25
100
AcDb2dPolyline
 66
     1
 10
0.0
 20
0.0
 30
0.0
  0
VERTEX
  5
4B9
330
4B8
100
AcDbEntity
  8
Layer 1
 62
     7
370
    25
100
AcDbVertex
100
AcDb2dVertex
 10
474.6323552958385
 20
1166.813877746491
 30
0.0
  0
VERTEX
  5
4BA
330
4B8
100
AcDbEntity
  8
Layer 1
 62
     7
370
    25
100
AcDbVertex
100
AcDb2dVertex
 10
469.3413776495918
 20
1173.869261045508
 30
0.0
  0
SEQEND
  5
4BB
330
4B8
100
AcDbEntity
  8
Layer 1
370
    25
  0
POLYLINE
  5
4BC
330
3C
100
AcDbEntity
  8
Layer 1
 62
     7
370
    25
100
AcDb2dPolyline
 66
     1
 10
0.0
 20
0.0
 30
0.0
  0
VERTEX
  5
4BD
330
4BC
100
AcDbEntity
  8
Layer 1
 62
     7
370
    25
100
AcDbVertex
100
AcDb2dVertex
 10
469.3413776495918
 20
1173.869261045508
 30
0.0
  0
VERTEX
  5
4BE
330
4BC
100
AcDbEntity
  8
Layer 1
 62
     7
370
    25
100
AcDbVertex
100
AcDb2dVertex
 10
458.7580443189042
 20
1173.869261045508
 30
0.0
  0
SEQEND
  5
4BF
330
4BC
100
AcDbEntity
  8
Layer 1
370
    25
  0
POLYLINE
  5
4C0
330
3C
100
AcDbEntity
  8
Layer 1
 62
     7
370
    25
100
AcDb2dPolyline
 66
     1
 10
0.0
 20
0.0
 30
0.0
  0
VERTEX
  5
4C1
330
4C0
100
AcDbEntity
  8
Layer 1
 62
     7
370
    25
100
AcDbVertex
100
AcDb2dVertex
 10
458.7580443189042
 20
1173.869261045508
 30
0.0
  0
VERTEX
  5
4C2
330
4C0
100
AcDbEntity
  8
Layer 1
 62
     7
370
    25
100
AcDbVertex
100
AcDb2dVertex
 10
453.4663776535605
 20
1180.924988854074
 30
0.0
  0
SEQEND
  5
4C3
330
4C0
100
AcDbEntity
  8
Layer 1
370
    25
  0
POLYLINE
  5
4C4
330
3C
100
AcDbEntity
  8
Layer 1
 62
     7
370
    25
100
AcDb2dPolyline
 66
     1
 10
0.0
 20
0.0
 30
0.0
  0
VERTEX
  5
4C5
330
4C4
100
AcDbEntity
  8
Layer 1
 62
     7
370
    25
100
AcDbVertex
100
AcDb2dVertex
 10
453.4663776535605
 20
1180.924988854074
 30
0.0
  0
VERTEX
  5
4C6
330
4C4
100
AcDbEntity
  8
Layer 1
 62
     7
370
    25
100
AcDbVertex
100
AcDb2dVertex
 10
453.4663776535605
 20
1187.980372153092
 30
0.0
  0
SEQEND
  5
4C7
330
4C4
100
AcDbEntity
  8
Layer 1
370
    25
  0
POLYLINE
  5
4C8
330
3C
100
AcDbEntity
  8
Layer 1
 62
     7
370
    25
100
AcDb2dPolyline
 66
     1
 10
0.0
 20
0.0
 30
0.0
  0
VERTEX
  5
4C9
330
4C8
100
AcDbEntity
  8
Layer 1
 62
     7
370
    25
100
AcDbVertex
100
AcDb2dVertex
 10
453.4663776535605
 20
1187.980372153092
 30
0.0
  0
VERTEX
  5
4CA
330
4C8
100
AcDbEntity
  8
Layer 1
 62
     7
370
    25
100
AcDbVertex
100
AcDb2dVertex
 10
458.7580443189042
 20
1195.036099961658
 30
0.0
  0
SEQEND
  5
4CB
330
4C8
100
AcDbEntity
  8
Layer 1
370
    25
  0
POLYLINE
  5
4CC
330
3C
100
AcDbEntity
  8
Layer 1
 62
     7
370
    25
100
AcDb2dPolyline
 66
     1
 10
0.0
 20
0.0
 30
0.0
  0
VERTEX
  5
4CD
330
4CC
100
AcDbEntity
  8
Layer 1
 62
     7
370
    25
100
AcDbVertex
100
AcDb2dVertex
 10
458.7580443189042
 20
1195.036099961658
 30
0.0
  0
VERTEX
  5
4CE
330
4CC
100
AcDbEntity
  8
Layer 1
 62
     7
370
    25
100
AcDbVertex
100
AcDb2dVertex
 10
469.3413776495918
 20
1195.036099961658
 30
0.0
  0
SEQEND
  5
4CF
330
4CC
100
AcDbEntity
  8
Layer 1
370
    25
  0
POLYLINE
  5
4D0
330
3C
100
AcDbEntity
  8
Layer 1
 62
     7
370
    25
100
AcDb2dPolyline
 66
     1
 10
0.0
 20
0.0
 30
0.0
  0
VERTEX
  5
4D1
330
4D0
100
AcDbEntity
  8
Layer 1
 62
     7
370
    25
100
AcDbVertex
100
AcDb2dVertex
 10
469.3413776495918
 20
1195.036099961658
 30
0.0
  0
VERTEX
  5
4D2
330
4D0
100
AcDbEntity
  8
Layer 1
 62
     7
370
    25
100
AcDbVertex
100
AcDb2dVertex
 10
474.6323552958385
 20
1187.980372153092
 30
0.0
  0
SEQEND
  5
4D3
330
4D0
100
AcDbEntity
  8
Layer 1
370
    25
  0
POLYLINE
  5
4D4
330
3C
100
AcDbEntity
  8
Layer 1
 62
     7
370
    25
100
AcDb2dPolyline
 66
     1
 10
0.0
 20
0.0
 30
0.0
  0
VERTEX
  5
4D5
330
4D4
100
AcDbEntity
  8
Layer 1
 62
     7
370
    25
100
AcDbVertex
100
AcDb2dVertex
 10
474.6323552958385
 20
1187.980372153092
 30
0.0
  0
VERTEX
  5
4D6
330
4D4
100
AcDbEntity
  8
Layer 1
 62
     7
370
    25
100
AcDbVertex
100
AcDb2dVertex
 10
474.6323552958385
 20
1180.924988854074
 30
0.0
  0
SEQEND
  5
4D7
330
4D4
100
AcDbEntity
  8
Layer 1
370
    25
  0
POLYLINE
  5
4D8
330
3C
100
AcDbEntity
  8
Layer 1
 62
     7
370
    25
100
AcDb2dPolyline
 66
     1
 10
0.0
 20
0.0
 30
0.0
  0
VERTEX
  5
4D9
330
4D8
100
AcDbEntity
  8
Layer 1
 62
     7
370
    25
100
AcDbVertex
100
AcDb2dVertex
 10
474.6323552958385
 20
1180.924988854074
 30
0.0
  0
VERTEX
  5
4DA
330
4D8
100
AcDbEntity
  8
Layer 1
 62
     7
370
    25
100
AcDbVertex
100
AcDb2dVertex
 10
469.3413776495918
 20
1173.869261045508
 30
0.0
  0
SEQEND
  5
4DB
330
4D8
100
AcDbEntity
  8
Layer 1
370
    25
  0
POLYLINE
  5
4DC
330
3C
100
AcDbEntity
  8
Layer 1
 62
     7
370
    25
100
AcDb2dPolyline
 66
     1
 10
0.0
 20
0.0
 30
0.0
  0
VERTEX
  5
4DD
330
4DC
100
AcDbEntity
  8
Layer 1
 62
     7
370
    25
100
AcDbVertex
100
AcDb2dVertex
 10
458.7580443189042
 20
1173.869261045508
 30
0.0
  0
VERTEX
  5
4DE
330
4DC
100
AcDbEntity
  8
Layer 1
 62
     7
370
    25
100
AcDbVertex
100
AcDb2dVertex
 10
453.4663776535605
 20
1166.813877746491
 30
0.0
  0
SEQEND
  5
4DF
330
4DC
100
AcDbEntity
  8
Layer 1
370
    25
  0
POLYLINE
  5
4E0
330
3C
100
AcDbEntity
  8
Layer 1
 62
     7
370
    25
100
AcDb2dPolyline
 66
     1
 10
0.0
 20
0.0
 30
0.0
  0
VERTEX
  5
4E1
330
4E0
100
AcDbEntity
  8
Layer 1
 62
     7
370
    25
100
AcDbVertex
100
AcDb2dVertex
 10
453.4663776535605
 20
1166.813877746491
 30
0.0
  0
VERTEX
  5
4E2
330
4E0
100
AcDbEntity
  8
Layer 1
 62
     7
370
    25
100
AcDbVertex
100
AcDb2dVertex
 10
453.4663776535605
 20
1159.758149937925
 30
0.0
  0
SEQEND
  5
4E3
330
4E0
100
AcDbEntity
  8
Layer 1
370
    25
  0
POLYLINE
  5
4E4
330
3C
100
AcDbEntity
  8
Layer 1
 62
     7
370
    25
100
AcDb2dPolyline
 66
     1
 10
0.0
 20
0.0
 30
0.0
  0
VERTEX
  5
4E5
330
4E4
100
AcDbEntity
  8
Layer 1
 62
     7
370
    25
100
AcDbVertex
100
AcDb2dVertex
 10
453.4663776535605
 20
1159.758149937925
 30
0.0
  0
VERTEX
  5
4E6
330
4E4
100
AcDbEntity
  8
Layer 1
 62
     7
370
    25
100
AcDbVertex
100
AcDb2dVertex
 10
458.7580443189042
 20
1152.702766638908
 30
0.0
  0
SEQEND
  5
4E7
330
4E4
100
AcDbEntity
  8
Layer 1
370
    25
  0
POLYLINE
  5
4E8
330
3C
100
AcDbEntity
  8
Layer 1
 62
     7
370
    25
100
AcDb2dPolyline
 66
     1
 10
0.0
 20
0.0
 30
0.0
  0
VERTEX
  5
4E9
330
4E8
100
AcDbEntity
  8
Layer 1
 62
     7
370
    25
100
AcDbVertex
100
AcDb2dVertex
 10
490.5076998014183
 20
1152.702766638908
 30
0.0
  0
VERTEX
  5
4EA
330
4E8
100
AcDbEntity
  8
Layer 1
 62
     7
370
    25
100
AcDbVertex
100
AcDb2dVertex
 10
485.2156886265259
 20
1159.758149937925
 30
0.0
  0
SEQEND
  5
4EB
330
4E8
100
AcDbEntity
  8
Layer 1
370
    25
  0
POLYLINE
  5
4EC
330
3C
100
AcDbEntity
  8
Layer 1
 62
     7
370
    25
100
AcDb2dPolyline
 66
     1
 10
0.0
 20
0.0
 30
0.0
  0
VERTEX
  5
4ED
330
4EC
100
AcDbEntity
  8
Layer 1
 62
     7
370
    25
100
AcDbVertex
100
AcDb2dVertex
 10
485.2156886265259
 20
1159.758149937925
 30
0.0
  0
VERTEX
  5
4EE
330
4EC
100
AcDbEntity
  8
Layer 1
 62
     7
370
    25
100
AcDbVertex
100
AcDb2dVertex
 10
485.2156886265259
 20
1187.980372153092
 30
0.0
  0
SEQEND
  5
4EF
330
4EC
100
AcDbEntity
  8
Layer 1
370
    25
  0
POLYLINE
  5
4F0
330
3C
100
AcDbEntity
  8
Layer 1
 62
     7
370
    25
100
AcDb2dPolyline
 66
     1
 10
0.0
 20
0.0
 30
0.0
  0
VERTEX
  5
4F1
330
4F0
100
AcDbEntity
  8
Layer 1
 62
     7
370
    25
100
AcDbVertex
100
AcDb2dVertex
 10
485.2156886265259
 20
1187.980372153092
 30
0.0
  0
VERTEX
  5
4F2
330
4F0
100
AcDbEntity
  8
Layer 1
 62
     7
370
    25
100
AcDbVertex
100
AcDb2dVertex
 10
490.5076998014183
 20
1195.036099961658
 30
0.0
  0
SEQEND
  5
4F3
330
4F0
100
AcDbEntity
  8
Layer 1
370
    25
  0
POLYLINE
  5
4F4
330
3C
100
AcDbEntity
  8
Layer 1
 62
     7
370
    25
100
AcDb2dPolyline
 66
     1
 10
0.0
 20
0.0
 30
0.0
  0
VERTEX
  5
4F5
330
4F4
100
AcDbEntity
  8
Layer 1
 62
     7
370
    25
100
AcDbVertex
100
AcDb2dVertex
 10
490.5076998014183
 20
1195.036099961658
 30
0.0
  0
VERTEX
  5
4F6
330
4F4
100
AcDbEntity
  8
Layer 1
 62
     7
370
    25
100
AcDbVertex
100
AcDb2dVertex
 10
495.799366466762
 20
1195.036099961658
 30
0.0
  0
SEQEND
  5
4F7
330
4F4
100
AcDbEntity
  8
Layer 1
370
    25
  0
POLYLINE
  5
4F8
330
3C
100
AcDbEntity
  8
Layer 1
 62
     7
370
    25
100
AcDb2dPolyline
 66
     1
 10
0.0
 20
0.0
 30
0.0
  0
VERTEX
  5
4F9
330
4F8
100
AcDbEntity
  8
Layer 1
 62
     7
370
    25
100
AcDbVertex
100
AcDb2dVertex
 10
495.799366466762
 20
1195.036099961658
 30
0.0
  0
VERTEX
  5
4FA
330
4F8
100
AcDbEntity
  8
Layer 1
 62
     7
370
    25
100
AcDbVertex
100
AcDb2dVertex
 10
501.0910331321057
 20
1187.980372153092
 30
0.0
  0
SEQEND
  5
4FB
330
4F8
100
AcDbEntity
  8
Layer 1
370
    25
  0
POLYLINE
  5
4FC
330
3C
100
AcDbEntity
  8
Layer 1
 62
     7
370
    25
100
AcDb2dPolyline
 66
     1
 10
0.0
 20
0.0
 30
0.0
  0
VERTEX
  5
4FD
330
4FC
100
AcDbEntity
  8
Layer 1
 62
     7
370
    25
100
AcDbVertex
100
AcDb2dVertex
 10
501.0910331321057
 20
1187.980372153092
 30
0.0
  0
VERTEX
  5
4FE
330
4FC
100
AcDbEntity
  8
Layer 1
 62
     7
370
    25
100
AcDbVertex
100
AcDb2dVertex
 10
501.0910331321057
 20
1159.758149937925
 30
0.0
  0
SEQEND
  5
4FF
330
4FC
100
AcDbEntity
  8
Layer 1
370
    25
  0
POLYLINE
  5
500
330
3C
100
AcDbEntity
  8
Layer 1
 62
     7
370
    25
100
AcDb2dPolyline
 66
     1
 10
0.0
 20
0.0
 30
0.0
  0
VERTEX
  5
501
330
500
100
AcDbEntity
  8
Layer 1
 62
     7
370
    25
100
AcDbVertex
100
AcDb2dVertex
 10
501.0910331321057
 20
1159.758149937925
 30
0.0
  0
VERTEX
  5
502
330
500
100
AcDbEntity
  8
Layer 1
 62
     7
370
    25
100
AcDbVertex
100
AcDb2dVertex
 10
495.799366466762
 20
1152.702766638908
 30
0.0
  0
SEQEND
  5
503
330
500
100
AcDbEntity
  8
Layer 1
370
    25
  0
POLYLINE
  5
504
330
3C
100
AcDbEntity
  8
Layer 1
 62
     7
370
    25
100
AcDb2dPolyline
 66
     1
 10
0.0
 20
0.0
 30
0.0
  0
VERTEX
  5
505
330
504
100
AcDbEntity
  8
Layer 1
 62
     7
370
    25
100
AcDbVertex
100
AcDb2dVertex
 10
495.799366466762
 20
1152.702766638908
 30
0.0
  0
VERTEX
  5
506
330
504
100
AcDbEntity
  8
Layer 1
 62
     7
370
    25
100
AcDbVertex
100
AcDb2dVertex
 10
490.5076998014183
 20
1152.702766638908
 30
0.0
  0
SEQEND
  5
507
330
504
100
AcDbEntity
  8
Layer 1
370
    25
  0
POLYLINE
  5
508
330
3C
100
AcDbEntity
  8
Layer 1
370
     0
100
AcDb2dPolyline
 66
     1
 10
0.0
 20
0.0
 30
0.0
  0
VERTEX
  5
509
330
508
100
AcDbEntity
  8
Layer 1
370
     0
100
AcDbVertex
100
AcDb2dVertex
 10
700.8040796859101
 20
1140.465442965752
 30
0.0
  0
VERTEX
  5
50A
330
508
100
AcDbEntity
  8
Layer 1
370
     0
100
AcDbVertex
100
AcDb2dVertex
 10
730.8039711714657
 20
1145.465654553043
 30
0.0
  0
VERTEX
  5
50B
330
508
100
AcDbEntity
  8
Layer 1
370
     0
100
AcDbVertex
100
AcDb2dVertex
 10
730.8039711714657
 20
1135.465403633234
 30
0.0
  0
SEQEND
  5
50C
330
508
100
AcDbEntity
  8
Layer 1
370
     0
  0
HATCH
  5
50D
330
3C
100
AcDbEntity
  8
Layer 1
 62
     7
100
AcDbHatch
 10
0.0
 20
0.0
 30
0.0
210
0.0
220
0.0
230
1.0
  2
SOLID
 70
     1
 71
     0
 91
        1
 92
        1
 93
        3
 72
     1
 10
700.8040796859101
 20
1140.465442965752
 11
730.8039711714657
 21
1145.465654553043
 72
     1
 10
730.8039711714657
 20
1145.465654553043
 11
730.8039711714657
 21
1135.465403633234
 72
     1
 10
730.8039711714657
 20
1135.465403633234
 11
700.8040796859101
 21
1140.465442965752
 97
        0
 75
     2
 76
     1
 98
        0
  0
POLYLINE
  5
50E
330
3C
100
AcDbEntity
  8
Layer 1
370
     0
100
AcDb2dPolyline
 66
     1
 10
0.0
 20
0.0
 30
0.0
  0
VERTEX
  5
50F
330
50E
100
AcDbEntity
  8
Layer 1
370
     0
100
AcDbVertex
100
AcDb2dVertex
 10
675.8037107685491
 20
1140.465442965752
 30
0.0
  0
VERTEX
  5
510
330
50E
100
AcDbEntity
  8
Layer 1
370
     0
100
AcDbVertex
100
AcDb2dVertex
 10
645.8038192829936
 20
1135.465403633234
 30
0.0
  0
VERTEX
  5
511
330
50E
100
AcDbEntity
  8
Layer 1
370
     0
100
AcDbVertex
100
AcDb2dVertex
 10
645.8038192829936
 20
1145.465654553043
 30
0.0
  0
SEQEND
  5
512
330
50E
100
AcDbEntity
  8
Layer 1
370
     0
  0
HATCH
  5
513
330
3C
100
AcDbEntity
  8
Layer 1
 62
     7
100
AcDbHatch
 10
0.0
 20
0.0
 30
0.0
210
0.0
220
0.0
230
1.0
  2
SOLID
 70
     1
 71
     0
 91
        1
 92
        1
 93
        3
 72
     1
 10
675.8037107685491
 20
1140.465442965752
 11
645.8038192829936
 21
1135.465403633234
 72
     1
 10
645.8038192829936
 20
1135.465403633234
 11
645.8038192829936
 21
1145.465654553043
 72
     1
 10
645.8038192829936
 20
1145.465654553043
 11
675.8037107685491
 21
1140.465442965752
 97
        0
 75
     2
 76
     1
 98
        0
  0
POLYLINE
  5
514
330
3C
100
AcDbEntity
  8
Layer 1
 62
     7
370
    25
100
AcDb2dPolyline
 66
     1
 10
0.0
 20
0.0
 30
0.0
  0
VERTEX
  5
515
330
514
100
AcDbEntity
  8
Layer 1
 62
     7
370
    25
100
AcDbVertex
100
AcDb2dVertex
 10
700.8040796859101
 20
1081.276118707545
 30
0.0
  0
VERTEX
  5
516
330
514
100
AcDbEntity
  8
Layer 1
 62
     7
370
    25
100
AcDbVertex
100
AcDb2dVertex
 10
700.8040796859101
 20
1150.465349376012
 30
0.0
  0
SEQEND
  5
517
330
514
100
AcDbEntity
  8
Layer 1
370
    25
  0
POLYLINE
  5
518
330
3C
100
AcDbEntity
  8
Layer 1
 62
     7
370
    25
100
AcDb2dPolyline
 66
     1
 10
0.0
 20
0.0
 30
0.0
  0
VERTEX
  5
519
330
518
100
AcDbEntity
  8
Layer 1
 62
     7
370
    25
100
AcDbVertex
100
AcDb2dVertex
 10
675.8037107685491
 20
1080.884755860421
 30
0.0
  0
VERTEX
  5
51A
330
518
100
AcDbEntity
  8
Layer 1
 62
     7
370
    25
100
AcDbVertex
100
AcDb2dVertex
 10
675.8037107685491
 20
1150.465349376012
 30
0.0
  0
SEQEND
  5
51B
330
518
100
AcDbEntity
  8
Layer 1
370
    25
  0
POLYLINE
  5
51C
330
3C
100
AcDbEntity
  8
Layer 1
 62
     7
370
    25
100
AcDb2dPolyline
 66
     1
 10
0.0
 20
0.0
 30
0.0
  0
VERTEX
  5
51D
330
51C
100
AcDbEntity
  8
Layer 1
 62
     7
370
    25
100
AcDbVertex
100
AcDb2dVertex
 10
700.8040796859101
 20
1140.465442965752
 30
0.0
  0
VERTEX
  5
51E
330
51C
100
AcDbEntity
  8
Layer 1
 62
     7
370
    25
100
AcDbVertex
100
AcDb2dVertex
 10
816.9596080856907
 20
1140.465442965752
 30
0.0
  0
SEQEND
  5
51F
330
51C
100
AcDbEntity
  8
Layer 1
370
    25
  0
POLYLINE
  5
520
330
3C
100
AcDbEntity
  8
Layer 1
 62
     7
370
    25
100
AcDb2dPolyline
 66
     1
 10
0.0
 20
0.0
 30
0.0
  0
VERTEX
  5
521
330
520
100
AcDbEntity
  8
Layer 1
 62
     7
370
    25
100
AcDbVertex
100
AcDb2dVertex
 10
700.8040796859101
 20
1140.465442965752
 30
0.0
  0
VERTEX
  5
522
330
520
100
AcDbEntity
  8
Layer 1
 62
     7
370
    25
100
AcDbVertex
100
AcDb2dVertex
 10
675.8037107685491
 20
1140.465442965752
 30
0.0
  0
SEQEND
  5
523
330
520
100
AcDbEntity
  8
Layer 1
370
    25
  0
POLYLINE
  5
524
330
3C
100
AcDbEntity
  8
Layer 1
 62
     7
370
    25
100
AcDb2dPolyline
 66
     1
 10
0.0
 20
0.0
 30
0.0
  0
VERTEX
  5
525
330
524
100
AcDbEntity
  8
Layer 1
 62
     7
370
    25
100
AcDbVertex
100
AcDb2dVertex
 10
675.8037107685491
 20
1140.465442965752
 30
0.0
  0
VERTEX
  5
526
330
524
100
AcDbEntity
  8
Layer 1
 62
     7
370
    25
100
AcDbVertex
100
AcDb2dVertex
 10
615.804616816535
 20
1140.465442965752
 30
0.0
  0
SEQEND
  5
527
330
524
100
AcDbEntity
  8
Layer 1
370
    25
  0
POLYLINE
  5
528
330
3C
100
AcDbEntity
  8
Layer 1
 62
     7
370
    25
100
AcDb2dPolyline
 66
     1
 10
0.0
 20
0.0
 30
0.0
  0
VERTEX
  5
529
330
528
100
AcDbEntity
  8
Layer 1
 62
     7
370
    25
100
AcDbVertex
100
AcDb2dVertex
 10
720.0642305057479
 20
1187.980372153092
 30
0.0
  0
VERTEX
  5
52A
330
528
100
AcDbEntity
  8
Layer 1
 62
     7
370
    25
100
AcDbVertex
100
AcDb2dVertex
 10
725.3558971710917
 20
1195.036099961658
 30
0.0
  0
SEQEND
  5
52B
330
528
100
AcDbEntity
  8
Layer 1
370
    25
  0
POLYLINE
  5
52C
330
3C
100
AcDbEntity
  8
Layer 1
 62
     7
370
    25
100
AcDb2dPolyline
 66
     1
 10
0.0
 20
0.0
 30
0.0
  0
VERTEX
  5
52D
330
52C
100
AcDbEntity
  8
Layer 1
 62
     7
370
    25
100
AcDbVertex
100
AcDb2dVertex
 10
725.3558971710917
 20
1195.036099961658
 30
0.0
  0
VERTEX
  5
52E
330
52C
100
AcDbEntity
  8
Layer 1
 62
     7
370
    25
100
AcDbVertex
100
AcDb2dVertex
 10
735.9392305017791
 20
1195.036099961658
 30
0.0
  0
SEQEND
  5
52F
330
52C
100
AcDbEntity
  8
Layer 1
370
    25
  0
POLYLINE
  5
530
330
3C
100
AcDbEntity
  8
Layer 1
 62
     7
370
    25
100
AcDb2dPolyline
 66
     1
 10
0.0
 20
0.0
 30
0.0
  0
VERTEX
  5
531
330
530
100
AcDbEntity
  8
Layer 1
 62
     7
370
    25
100
AcDbVertex
100
AcDb2dVertex
 10
735.9392305017791
 20
1195.036099961658
 30
0.0
  0
VERTEX
  5
532
330
530
100
AcDbEntity
  8
Layer 1
 62
     7
370
    25
100
AcDbVertex
100
AcDb2dVertex
 10
741.2308971671229
 20
1187.980372153092
 30
0.0
  0
SEQEND
  5
533
330
530
100
AcDbEntity
  8
Layer 1
370
    25
  0
POLYLINE
  5
534
330
3C
100
AcDbEntity
  8
Layer 1
 62
     7
370
    25
100
AcDb2dPolyline
 66
     1
 10
0.0
 20
0.0
 30
0.0
  0
VERTEX
  5
535
330
534
100
AcDbEntity
  8
Layer 1
 62
     7
370
    25
100
AcDbVertex
100
AcDb2dVertex
 10
741.2308971671229
 20
1187.980372153092
 30
0.0
  0
VERTEX
  5
536
330
534
100
AcDbEntity
  8
Layer 1
 62
     7
370
    25
100
AcDbVertex
100
AcDb2dVertex
 10
741.2308971671229
 20
1180.924988854074
 30
0.0
  0
SEQEND
  5
537
330
534
100
AcDbEntity
  8
Layer 1
370
    25
  0
POLYLINE
  5
538
330
3C
100
AcDbEntity
  8
Layer 1
 62
     7
370
    25
100
AcDb2dPolyline
 66
     1
 10
0.0
 20
0.0
 30
0.0
  0
VERTEX
  5
539
330
538
100
AcDbEntity
  8
Layer 1
 62
     7
370
    25
100
AcDbVertex
100
AcDb2dVertex
 10
741.2308971671229
 20
1180.924988854074
 30
0.0
  0
VERTEX
  5
53A
330
538
100
AcDbEntity
  8
Layer 1
 62
     7
370
    25
100
AcDbVertex
100
AcDb2dVertex
 10
735.9392305017791
 20
1173.869261045508
 30
0.0
  0
SEQEND
  5
53B
330
538
100
AcDbEntity
  8
Layer 1
370
    25
  0
POLYLINE
  5
53C
330
3C
100
AcDbEntity
  8
Layer 1
 62
     7
370
    25
100
AcDb2dPolyline
 66
     1
 10
0.0
 20
0.0
 30
0.0
  0
VERTEX
  5
53D
330
53C
100
AcDbEntity
  8
Layer 1
 62
     7
370
    25
100
AcDbVertex
100
AcDb2dVertex
 10
735.9392305017791
 20
1173.869261045508
 30
0.0
  0
VERTEX
  5
53E
330
53C
100
AcDbEntity
  8
Layer 1
 62
     7
370
    25
100
AcDbVertex
100
AcDb2dVertex
 10
725.3558971710917
 20
1173.869261045508
 30
0.0
  0
SEQEND
  5
53F
330
53C
100
AcDbEntity
  8
Layer 1
370
    25
  0
POLYLINE
  5
540
330
3C
100
AcDbEntity
  8
Layer 1
 62
     7
370
    25
100
AcDb2dPolyline
 66
     1
 10
0.0
 20
0.0
 30
0.0
  0
VERTEX
  5
541
330
540
100
AcDbEntity
  8
Layer 1
 62
     7
370
    25
100
AcDbVertex
100
AcDb2dVertex
 10
725.3558971710917
 20
1173.869261045508
 30
0.0
  0
VERTEX
  5
542
330
540
100
AcDbEntity
  8
Layer 1
 62
     7
370
    25
100
AcDbVertex
100
AcDb2dVertex
 10
720.0642305057479
 20
1166.813877746491
 30
0.0
  0
SEQEND
  5
543
330
540
100
AcDbEntity
  8
Layer 1
370
    25
  0
POLYLINE
  5
544
330
3C
100
AcDbEntity
  8
Layer 1
 62
     7
370
    25
100
AcDb2dPolyline
 66
     1
 10
0.0
 20
0.0
 30
0.0
  0
VERTEX
  5
545
330
544
100
AcDbEntity
  8
Layer 1
 62
     7
370
    25
100
AcDbVertex
100
AcDb2dVertex
 10
720.0642305057479
 20
1166.813877746491
 30
0.0
  0
VERTEX
  5
546
330
544
100
AcDbEntity
  8
Layer 1
 62
     7
370
    25
100
AcDbVertex
100
AcDb2dVertex
 10
720.0642305057479
 20
1152.702766638908
 30
0.0
  0
SEQEND
  5
547
330
544
100
AcDbEntity
  8
Layer 1
370
    25
  0
POLYLINE
  5
548
330
3C
100
AcDbEntity
  8
Layer 1
 62
     7
370
    25
100
AcDb2dPolyline
 66
     1
 10
0.0
 20
0.0
 30
0.0
  0
VERTEX
  5
549
330
548
100
AcDbEntity
  8
Layer 1
 62
     7
370
    25
100
AcDbVertex
100
AcDb2dVertex
 10
720.0642305057479
 20
1152.702766638908
 30
0.0
  0
VERTEX
  5
54A
330
548
100
AcDbEntity
  8
Layer 1
 62
     7
370
    25
100
AcDbVertex
100
AcDb2dVertex
 10
741.2308971671229
 20
1152.702766638908
 30
0.0
  0
SEQEND
  5
54B
330
548
100
AcDbEntity
  8
Layer 1
370
    25
  0
POLYLINE
  5
54C
330
3C
100
AcDbEntity
  8
Layer 1
 62
     7
370
    25
100
AcDb2dPolyline
 66
     1
 10
0.0
 20
0.0
 30
0.0
  0
VERTEX
  5
54D
330
54C
100
AcDbEntity
  8
Layer 1
 62
     7
370
    25
100
AcDbVertex
100
AcDb2dVertex
 10
751.8135414787133
 20
1159.758149937925
 30
0.0
  0
VERTEX
  5
54E
330
54C
100
AcDbEntity
  8
Layer 1
 62
     7
370
    25
100
AcDbVertex
100
AcDb2dVertex
 10
757.1058971631542
 20
1152.702766638908
 30
0.0
  0
SEQEND
  5
54F
330
54C
100
AcDbEntity
  8
Layer 1
370
    25
  0
POLYLINE
  5
550
330
3C
100
AcDbEntity
  8
Layer 1
 62
     7
370
    25
100
AcDb2dPolyline
 66
     1
 10
0.0
 20
0.0
 30
0.0
  0
VERTEX
  5
551
330
550
100
AcDbEntity
  8
Layer 1
 62
     7
370
    25
100
AcDbVertex
100
AcDb2dVertex
 10
757.1058971631542
 20
1152.702766638908
 30
0.0
  0
VERTEX
  5
552
330
550
100
AcDbEntity
  8
Layer 1
 62
     7
370
    25
100
AcDbVertex
100
AcDb2dVertex
 10
767.6885414747445
 20
1152.702766638908
 30
0.0
  0
SEQEND
  5
553
330
550
100
AcDbEntity
  8
Layer 1
370
    25
  0
POLYLINE
  5
554
330
3C
100
AcDbEntity
  8
Layer 1
 62
     7
370
    25
100
AcDb2dPolyline
 66
     1
 10
0.0
 20
0.0
 30
0.0
  0
VERTEX
  5
555
330
554
100
AcDbEntity
  8
Layer 1
 62
     7
370
    25
100
AcDbVertex
100
AcDb2dVertex
 10
767.6885414747445
 20
1152.702766638908
 30
0.0
  0
VERTEX
  5
556
330
554
100
AcDbEntity
  8
Layer 1
 62
     7
370
    25
100
AcDbVertex
100
AcDb2dVertex
 10
772.9802081400883
 20
1159.758149937925
 30
0.0
  0
SEQEND
  5
557
330
554
100
AcDbEntity
  8
Layer 1
370
    25
  0
POLYLINE
  5
558
330
3C
100
AcDbEntity
  8
Layer 1
 62
     7
370
    25
100
AcDb2dPolyline
 66
     1
 10
0.0
 20
0.0
 30
0.0
  0
VERTEX
  5
559
330
558
100
AcDbEntity
  8
Layer 1
 62
     7
370
    25
100
AcDbVertex
100
AcDb2dVertex
 10
772.9802081400883
 20
1159.758149937925
 30
0.0
  0
VERTEX
  5
55A
330
558
100
AcDbEntity
  8
Layer 1
 62
     7
370
    25
100
AcDbVertex
100
AcDb2dVertex
 10
772.9802081400883
 20
1173.869261045508
 30
0.0
  0
SEQEND
  5
55B
330
558
100
AcDbEntity
  8
Layer 1
370
    25
  0
POLYLINE
  5
55C
330
3C
100
AcDbEntity
  8
Layer 1
 62
     7
370
    25
100
AcDb2dPolyline
 66
     1
 10
0.0
 20
0.0
 30
0.0
  0
VERTEX
  5
55D
330
55C
100
AcDbEntity
  8
Layer 1
 62
     7
370
    25
100
AcDbVertex
100
AcDb2dVertex
 10
772.9802081400883
 20
1173.869261045508
 30
0.0
  0
VERTEX
  5
55E
330
55C
100
AcDbEntity
  8
Layer 1
 62
     7
370
    25
100
AcDbVertex
100
AcDb2dVertex
 10
767.6885414747445
 20
1180.924988854074
 30
0.0
  0
SEQEND
  5
55F
330
55C
100
AcDbEntity
  8
Layer 1
370
    25
  0
POLYLINE
  5
560
330
3C
100
AcDbEntity
  8
Layer 1
 62
     7
370
    25
100
AcDb2dPolyline
 66
     1
 10
0.0
 20
0.0
 30
0.0
  0
VERTEX
  5
561
330
560
100
AcDbEntity
  8
Layer 1
 62
     7
370
    25
100
AcDbVertex
100
AcDb2dVertex
 10
767.6885414747445
 20
1180.924988854074
 30
0.0
  0
VERTEX
  5
562
330
560
100
AcDbEntity
  8
Layer 1
 62
     7
370
    25
100
AcDbVertex
100
AcDb2dVertex
 10
751.8135414787133
 20
1180.924988854074
 30
0.0
  0
SEQEND
  5
563
330
560
100
AcDbEntity
  8
Layer 1
370
    25
  0
POLYLINE
  5
564
330
3C
100
AcDbEntity
  8
Layer 1
 62
     7
370
    25
100
AcDb2dPolyline
 66
     1
 10
0.0
 20
0.0
 30
0.0
  0
VERTEX
  5
565
330
564
100
AcDbEntity
  8
Layer 1
 62
     7
370
    25
100
AcDbVertex
100
AcDb2dVertex
 10
751.8135414787133
 20
1180.924988854074
 30
0.0
  0
VERTEX
  5
566
330
564
100
AcDbEntity
  8
Layer 1
 62
     7
370
    25
100
AcDbVertex
100
AcDb2dVertex
 10
751.8135414787133
 20
1195.036099961658
 30
0.0
  0
SEQEND
  5
567
330
564
100
AcDbEntity
  8
Layer 1
370
    25
  0
POLYLINE
  5
568
330
3C
100
AcDbEntity
  8
Layer 1
 62
     7
370
    25
100
AcDb2dPolyline
 66
     1
 10
0.0
 20
0.0
 30
0.0
  0
VERTEX
  5
569
330
568
100
AcDbEntity
  8
Layer 1
 62
     7
370
    25
100
AcDbVertex
100
AcDb2dVertex
 10
751.8135414787133
 20
1195.036099961658
 30
0.0
  0
VERTEX
  5
56A
330
568
100
AcDbEntity
  8
Layer 1
 62
     7
370
    25
100
AcDbVertex
100
AcDb2dVertex
 10
772.9802081400883
 20
1195.036099961658
 30
0.0
  0
SEQEND
  5
56B
330
568
100
AcDbEntity
  8
Layer 1
370
    25
  0
POLYLINE
  5
56C
330
3C
100
AcDbEntity
  8
Layer 1
370
     0
100
AcDb2dPolyline
 66
     1
 10
0.0
 20
0.0
 30
0.0
  0
VERTEX
  5
56D
330
56C
100
AcDbEntity
  8
Layer 1
370
     0
100
AcDbVertex
100
AcDb2dVertex
 10
295.8045111022641
 20
1140.465442965752
 30
0.0
  0
VERTEX
  5
56E
330
56C
100
AcDbEntity
  8
Layer 1
370
     0
100
AcDbVertex
100
AcDb2dVertex
 10
325.8044025878198
 20
1145.465654553043
 30
0.0
  0
VERTEX
  5
56F
330
56C
100
AcDbEntity
  8
Layer 1
370
     0
100
AcDbVertex
100
AcDb2dVertex
 10
325.8044025878198
 20
1135.465403633234
 30
0.0
  0
SEQEND
  5
570
330
56C
100
AcDbEntity
  8
Layer 1
370
     0
  0
HATCH
  5
571
330
3C
100
AcDbEntity
  8
Layer 1
 62
     7
100
AcDbHatch
 10
0.0
 20
0.0
 30
0.0
210
0.0
220
0.0
230
1.0
  2
SOLID
 70
     1
 71
     0
 91
        1
 92
        1
 93
        3
 72
     1
 10
295.8045111022641
 20
1140.465442965752
 11
325.8044025878198
 21
1145.465654553043
 72
     1
 10
325.8044025878198
 20
1145.465654553043
 11
325.8044025878198
 21
1135.465403633234
 72
     1
 10
325.8044025878198
 20
1135.465403633234
 11
295.8045111022641
 21
1140.465442965752
 97
        0
 75
     2
 76
     1
 98
        0
  0
POLYLINE
  5
572
330
3C
100
AcDbEntity
  8
Layer 1
370
     0
100
AcDb2dPolyline
 66
     1
 10
0.0
 20
0.0
 30
0.0
  0
VERTEX
  5
573
330
572
100
AcDbEntity
  8
Layer 1
370
     0
100
AcDbVertex
100
AcDb2dVertex
 10
270.8041421849031
 20
1140.465442965752
 30
0.0
  0
VERTEX
  5
574
330
572
100
AcDbEntity
  8
Layer 1
370
     0
100
AcDbVertex
100
AcDb2dVertex
 10
240.8040784445733
 20
1135.465403633234
 30
0.0
  0
VERTEX
  5
575
330
572
100
AcDbEntity
  8
Layer 1
370
     0
100
AcDbVertex
100
AcDb2dVertex
 10
240.8040784445733
 20
1145.465654553043
 30
0.0
  0
SEQEND
  5
576
330
572
100
AcDbEntity
  8
Layer 1
370
     0
  0
HATCH
  5
577
330
3C
100
AcDbEntity
  8
Layer 1
 62
     7
100
AcDbHatch
 10
0.0
 20
0.0
 30
0.0
210
0.0
220
0.0
230
1.0
  2
SOLID
 70
     1
 71
     0
 91
        1
 92
        1
 93
        3
 72
     1
 10
270.8041421849031
 20
1140.465442965752
 11
240.8040784445733
 21
1135.465403633234
 72
     1
 10
240.8040784445733
 20
1135.465403633234
 11
240.8040784445733
 21
1145.465654553043
 72
     1
 10
240.8040784445733
 20
1145.465654553043
 11
270.8041421849031
 21
1140.465442965752
 97
        0
 75
     2
 76
     1
 98
        0
  0
POLYLINE
  5
578
330
3C
100
AcDbEntity
  8
Layer 1
 62
     7
370
    25
100
AcDb2dPolyline
 66
     1
 10
0.0
 20
0.0
 30
0.0
  0
VERTEX
  5
579
330
578
100
AcDbEntity
  8
Layer 1
 62
     7
370
    25
100
AcDbVertex
100
AcDb2dVertex
 10
295.8045111022641
 20
1080.884755860421
 30
0.0
  0
VERTEX
  5
57A
330
578
100
AcDbEntity
  8
Layer 1
 62
     7
370
    25
100
AcDbVertex
100
AcDb2dVertex
 10
295.8045111022641
 20
1150.465349376012
 30
0.0
  0
SEQEND
  5
57B
330
578
100
AcDbEntity
  8
Layer 1
370
    25
  0
POLYLINE
  5
57C
330
3C
100
AcDbEntity
  8
Layer 1
 62
     7
370
    25
100
AcDb2dPolyline
 66
     1
 10
0.0
 20
0.0
 30
0.0
  0
VERTEX
  5
57D
330
57C
100
AcDbEntity
  8
Layer 1
 62
     7
370
    25
100
AcDbVertex
100
AcDb2dVertex
 10
270.8041421849031
 20
1081.276118707545
 30
0.0
  0
VERTEX
  5
57E
330
57C
100
AcDbEntity
  8
Layer 1
 62
     7
370
    25
100
AcDbVertex
100
AcDb2dVertex
 10
270.8041421849031
 20
1150.465349376012
 30
0.0
  0
SEQEND
  5
57F
330
57C
100
AcDbEntity
  8
Layer 1
370
    25
  0
POLYLINE
  5
580
330
3C
100
AcDbEntity
  8
Layer 1
 62
     7
370
    25
100
AcDb2dPolyline
 66
     1
 10
0.0
 20
0.0
 30
0.0
  0
VERTEX
  5
581
330
580
100
AcDbEntity
  8
Layer 1
 62
     7
370
    25
100
AcDbVertex
100
AcDb2dVertex
 10
295.8045111022641
 20
1140.465442965752
 30
0.0
  0
VERTEX
  5
582
330
580
100
AcDbEntity
  8
Layer 1
 62
     7
370
    25
100
AcDbVertex
100
AcDb2dVertex
 10
355.8041218186011
 20
1140.465442965752
 30
0.0
  0
SEQEND
  5
583
330
580
100
AcDbEntity
  8
Layer 1
370
    25
  0
POLYLINE
  5
584
330
3C
100
AcDbEntity
  8
Layer 1
 62
     7
370
    25
100
AcDb2dPolyline
 66
     1
 10
0.0
 20
0.0
 30
0.0
  0
VERTEX
  5
585
330
584
100
AcDbEntity
  8
Layer 1
 62
     7
370
    25
100
AcDbVertex
100
AcDb2dVertex
 10
295.8045111022641
 20
1140.465442965752
 30
0.0
  0
VERTEX
  5
586
330
584
100
AcDbEntity
  8
Layer 1
 62
     7
370
    25
100
AcDbVertex
100
AcDb2dVertex
 10
270.8041421849031
 20
1140.465442965752
 30
0.0
  0
SEQEND
  5
587
330
584
100
AcDbEntity
  8
Layer 1
370
    25
  0
POLYLINE
  5
588
330
3C
100
AcDbEntity
  8
Layer 1
 62
     7
370
    25
100
AcDb2dPolyline
 66
     1
 10
0.0
 20
0.0
 30
0.0
  0
VERTEX
  5
589
330
588
100
AcDbEntity
  8
Layer 1
 62
     7
370
    25
100
AcDbVertex
100
AcDb2dVertex
 10
270.8041421849031
 20
1140.465442965752
 30
0.0
  0
VERTEX
  5
58A
330
588
100
AcDbEntity
  8
Layer 1
 62
     7
370
    25
100
AcDbVertex
100
AcDb2dVertex
 10
154.6479247660255
 20
1140.465442965752
 30
0.0
  0
SEQEND
  5
58B
330
588
100
AcDbEntity
  8
Layer 1
370
    25
  0
POLYLINE
  5
58C
330
3C
100
AcDbEntity
  8
Layer 1
 62
     7
370
    25
100
AcDb2dPolyline
 66
     1
 10
0.0
 20
0.0
 30
0.0
  0
VERTEX
  5
58D
330
58C
100
AcDbEntity
  8
Layer 1
 62
     7
370
    25
100
AcDbVertex
100
AcDb2dVertex
 10
154.6479247660255
 20
1187.980372153092
 30
0.0
  0
VERTEX
  5
58E
330
58C
100
AcDbEntity
  8
Layer 1
 62
     7
370
    25
100
AcDbVertex
100
AcDb2dVertex
 10
159.9395914313693
 20
1195.036099961658
 30
0.0
  0
SEQEND
  5
58F
330
58C
100
AcDbEntity
  8
Layer 1
370
    25
  0
POLYLINE
  5
590
330
3C
100
AcDbEntity
  8
Layer 1
 62
     7
370
    25
100
AcDb2dPolyline
 66
     1
 10
0.0
 20
0.0
 30
0.0
  0
VERTEX
  5
591
330
590
100
AcDbEntity
  8
Layer 1
 62
     7
370
    25
100
AcDbVertex
100
AcDb2dVertex
 10
159.9395914313693
 20
1195.036099961658
 30
0.0
  0
VERTEX
  5
592
330
590
100
AcDbEntity
  8
Layer 1
 62
     7
370
    25
100
AcDbVertex
100
AcDb2dVertex
 10
170.523097016831
 20
1195.036099961658
 30
0.0
  0
SEQEND
  5
593
330
590
100
AcDbEntity
  8
Layer 1
370
    25
  0
POLYLINE
  5
594
330
3C
100
AcDbEntity
  8
Layer 1
 62
     7
370
    25
100
AcDb2dPolyline
 66
     1
 10
0.0
 20
0.0
 30
0.0
  0
VERTEX
  5
595
330
594
100
AcDbEntity
  8
Layer 1
 62
     7
370
    25
100
AcDbVertex
100
AcDb2dVertex
 10
170.523097016831
 20
1195.036099961658
 30
0.0
  0
VERTEX
  5
596
330
594
100
AcDbEntity
  8
Layer 1
 62
     7
370
    25
100
AcDbVertex
100
AcDb2dVertex
 10
175.8144191726263
 20
1187.980372153092
 30
0.0
  0
SEQEND
  5
597
330
594
100
AcDbEntity
  8
Layer 1
370
    25
  0
POLYLINE
  5
598
330
3C
100
AcDbEntity
  8
Layer 1
 62
     7
370
    25
100
AcDb2dPolyline
 66
     1
 10
0.0
 20
0.0
 30
0.0
  0
VERTEX
  5
599
330
598
100
AcDbEntity
  8
Layer 1
 62
     7
370
    25
100
AcDbVertex
100
AcDb2dVertex
 10
175.8144191726263
 20
1187.980372153092
 30
0.0
  0
VERTEX
  5
59A
330
598
100
AcDbEntity
  8
Layer 1
 62
     7
370
    25
100
AcDbVertex
100
AcDb2dVertex
 10
175.8144191726263
 20
1180.924988854074
 30
0.0
  0
SEQEND
  5
59B
330
598
100
AcDbEntity
  8
Layer 1
370
    25
  0
POLYLINE
  5
59C
330
3C
100
AcDbEntity
  8
Layer 1
 62
     7
370
    25
100
AcDb2dPolyline
 66
     1
 10
0.0
 20
0.0
 30
0.0
  0
VERTEX
  5
59D
330
59C
100
AcDbEntity
  8
Layer 1
 62
     7
370
    25
100
AcDbVertex
100
AcDb2dVertex
 10
175.8144191726263
 20
1180.924988854074
 30
0.0
  0
VERTEX
  5
59E
330
59C
100
AcDbEntity
  8
Layer 1
 62
     7
370
    25
100
AcDbVertex
100
AcDb2dVertex
 10
170.523097016831
 20
1173.869261045508
 30
0.0
  0
SEQEND
  5
59F
330
59C
100
AcDbEntity
  8
Layer 1
370
    25
  0
POLYLINE
  5
5A0
330
3C
100
AcDbEntity
  8
Layer 1
 62
     7
370
    25
100
AcDb2dPolyline
 66
     1
 10
0.0
 20
0.0
 30
0.0
  0
VERTEX
  5
5A1
330
5A0
100
AcDbEntity
  8
Layer 1
 62
     7
370
    25
100
AcDbVertex
100
AcDb2dVertex
 10
170.523097016831
 20
1173.869261045508
 30
0.0
  0
VERTEX
  5
5A2
330
5A0
100
AcDbEntity
  8
Layer 1
 62
     7
370
    25
100
AcDbVertex
100
AcDb2dVertex
 10
159.9395914313693
 20
1173.869261045508
 30
0.0
  0
SEQEND
  5
5A3
330
5A0
100
AcDbEntity
  8
Layer 1
370
    25
  0
POLYLINE
  5
5A4
330
3C
100
AcDbEntity
  8
Layer 1
 62
     7
370
    25
100
AcDb2dPolyline
 66
     1
 10
0.0
 20
0.0
 30
0.0
  0
VERTEX
  5
5A5
330
5A4
100
AcDbEntity
  8
Layer 1
 62
     7
370
    25
100
AcDbVertex
100
AcDb2dVertex
 10
159.9395914313693
 20
1173.869261045508
 30
0.0
  0
VERTEX
  5
5A6
330
5A4
100
AcDbEntity
  8
Layer 1
 62
     7
370
    25
100
AcDbVertex
100
AcDb2dVertex
 10
154.6479247660255
 20
1166.813877746491
 30
0.0
  0
SEQEND
  5
5A7
330
5A4
100
AcDbEntity
  8
Layer 1
370
    25
  0
POLYLINE
  5
5A8
330
3C
100
AcDbEntity
  8
Layer 1
 62
     7
370
    25
100
AcDb2dPolyline
 66
     1
 10
0.0
 20
0.0
 30
0.0
  0
VERTEX
  5
5A9
330
5A8
100
AcDbEntity
  8
Layer 1
 62
     7
370
    25
100
AcDbVertex
100
AcDb2dVertex
 10
154.6479247660255
 20
1166.813877746491
 30
0.0
  0
VERTEX
  5
5AA
330
5A8
100
AcDbEntity
  8
Layer 1
 62
     7
370
    25
100
AcDbVertex
100
AcDb2dVertex
 10
154.6479247660255
 20
1152.702766638908
 30
0.0
  0
SEQEND
  5
5AB
330
5A8
100
AcDbEntity
  8
Layer 1
370
    25
  0
POLYLINE
  5
5AC
330
3C
100
AcDbEntity
  8
Layer 1
 62
     7
370
    25
100
AcDb2dPolyline
 66
     1
 10
0.0
 20
0.0
 30
0.0
  0
VERTEX
  5
5AD
330
5AC
100
AcDbEntity
  8
Layer 1
 62
     7
370
    25
100
AcDbVertex
100
AcDb2dVertex
 10
154.6479247660255
 20
1152.702766638908
 30
0.0
  0
VERTEX
  5
5AE
330
5AC
100
AcDbEntity
  8
Layer 1
 62
     7
370
    25
100
AcDbVertex
100
AcDb2dVertex
 10
175.8144191726263
 20
1152.702766638908
 30
0.0
  0
SEQEND
  5
5AF
330
5AC
100
AcDbEntity
  8
Layer 1
370
    25
  0
POLYLINE
  5
5B0
330
3C
100
AcDbEntity
  8
Layer 1
 62
     7
370
    25
100
AcDb2dPolyline
 66
     1
 10
0.0
 20
0.0
 30
0.0
  0
VERTEX
  5
5B1
330
5B0
100
AcDbEntity
  8
Layer 1
 62
     7
370
    25
100
AcDbVertex
100
AcDb2dVertex
 10
186.3977525033138
 20
1159.758149937925
 30
0.0
  0
VERTEX
  5
5B2
330
5B0
100
AcDbEntity
  8
Layer 1
 62
     7
370
    25
100
AcDbVertex
100
AcDb2dVertex
 10
191.6895914234318
 20
1152.702766638908
 30
0.0
  0
SEQEND
  5
5B3
330
5B0
100
AcDbEntity
  8
Layer 1
370
    25
  0
POLYLINE
  5
5B4
330
3C
100
AcDbEntity
  8
Layer 1
 62
     7
370
    25
100
AcDb2dPolyline
 66
     1
 10
0.0
 20
0.0
 30
0.0
  0
VERTEX
  5
5B5
330
5B4
100
AcDbEntity
  8
Layer 1
 62
     7
370
    25
100
AcDbVertex
100
AcDb2dVertex
 10
191.6895914234318
 20
1152.702766638908
 30
0.0
  0
VERTEX
  5
5B6
330
5B4
100
AcDbEntity
  8
Layer 1
 62
     7
370
    25
100
AcDbVertex
100
AcDb2dVertex
 10
202.2729247541193
 20
1152.702766638908
 30
0.0
  0
SEQEND
  5
5B7
330
5B4
100
AcDbEntity
  8
Layer 1
370
    25
  0
POLYLINE
  5
5B8
330
3C
100
AcDbEntity
  8
Layer 1
 62
     7
370
    25
100
AcDb2dPolyline
 66
     1
 10
0.0
 20
0.0
 30
0.0
  0
VERTEX
  5
5B9
330
5B8
100
AcDbEntity
  8
Layer 1
 62
     7
370
    25
100
AcDbVertex
100
AcDb2dVertex
 10
202.2729247541193
 20
1152.702766638908
 30
0.0
  0
VERTEX
  5
5BA
330
5B8
100
AcDbEntity
  8
Layer 1
 62
     7
370
    25
100
AcDbVertex
100
AcDb2dVertex
 10
207.5647636742373
 20
1159.758149937925
 30
0.0
  0
SEQEND
  5
5BB
330
5B8
100
AcDbEntity
  8
Layer 1
370
    25
  0
POLYLINE
  5
5BC
330
3C
100
AcDbEntity
  8
Layer 1
 62
     7
370
    25
100
AcDb2dPolyline
 66
     1
 10
0.0
 20
0.0
 30
0.0
  0
VERTEX
  5
5BD
330
5BC
100
AcDbEntity
  8
Layer 1
 62
     7
370
    25
100
AcDbVertex
100
AcDb2dVertex
 10
207.5647636742373
 20
1159.758149937925
 30
0.0
  0
VERTEX
  5
5BE
330
5BC
100
AcDbEntity
  8
Layer 1
 62
     7
370
    25
100
AcDbVertex
100
AcDb2dVertex
 10
207.5647636742373
 20
1173.869261045508
 30
0.0
  0
SEQEND
  5
5BF
330
5BC
100
AcDbEntity
  8
Layer 1
370
    25
  0
POLYLINE
  5
5C0
330
3C
100
AcDbEntity
  8
Layer 1
 62
     7
370
    25
100
AcDb2dPolyline
 66
     1
 10
0.0
 20
0.0
 30
0.0
  0
VERTEX
  5
5C1
330
5C0
100
AcDbEntity
  8
Layer 1
 62
     7
370
    25
100
AcDbVertex
100
AcDb2dVertex
 10
207.5647636742373
 20
1173.869261045508
 30
0.0
  0
VERTEX
  5
5C2
330
5C0
100
AcDbEntity
  8
Layer 1
 62
     7
370
    25
100
AcDbVertex
100
AcDb2dVertex
 10
202.2729247541193
 20
1180.924988854074
 30
0.0
  0
SEQEND
  5
5C3
330
5C0
100
AcDbEntity
  8
Layer 1
370
    25
  0
POLYLINE
  5
5C4
330
3C
100
AcDbEntity
  8
Layer 1
 62
     7
370
    25
100
AcDb2dPolyline
 66
     1
 10
0.0
 20
0.0
 30
0.0
  0
VERTEX
  5
5C5
330
5C4
100
AcDbEntity
  8
Layer 1
 62
     7
370
    25
100
AcDbVertex
100
AcDb2dVertex
 10
202.2729247541193
 20
1180.924988854074
 30
0.0
  0
VERTEX
  5
5C6
330
5C4
100
AcDbEntity
  8
Layer 1
 62
     7
370
    25
100
AcDbVertex
100
AcDb2dVertex
 10
186.3977525033138
 20
1180.924988854074
 30
0.0
  0
SEQEND
  5
5C7
330
5C4
100
AcDbEntity
  8
Layer 1
370
    25
  0
POLYLINE
  5
5C8
330
3C
100
AcDbEntity
  8
Layer 1
 62
     7
370
    25
100
AcDb2dPolyline
 66
     1
 10
0.0
 20
0.0
 30
0.0
  0
VERTEX
  5
5C9
330
5C8
100
AcDbEntity
  8
Layer 1
 62
     7
370
    25
100
AcDbVertex
100
AcDb2dVertex
 10
186.3977525033138
 20
1180.924988854074
 30
0.0
  0
VERTEX
  5
5CA
330
5C8
100
AcDbEntity
  8
Layer 1
 62
     7
370
    25
100
AcDbVertex
100
AcDb2dVertex
 10
186.3977525033138
 20
1195.036099961658
 30
0.0
  0
SEQEND
  5
5CB
330
5C8
100
AcDbEntity
  8
Layer 1
370
    25
  0
POLYLINE
  5
5CC
330
3C
100
AcDbEntity
  8
Layer 1
 62
     7
370
    25
100
AcDb2dPolyline
 66
     1
 10
0.0
 20
0.0
 30
0.0
  0
VERTEX
  5
5CD
330
5CC
100
AcDbEntity
  8
Layer 1
 62
     7
370
    25
100
AcDbVertex
100
AcDb2dVertex
 10
186.3977525033138
 20
1195.036099961658
 30
0.0
  0
VERTEX
  5
5CE
330
5CC
100
AcDbEntity
  8
Layer 1
 62
     7
370
    25
100
AcDbVertex
100
AcDb2dVertex
 10
207.5647636742373
 20
1195.036099961658
 30
0.0
  0
SEQEND
  5
5CF
330
5CC
100
AcDbEntity
  8
Layer 1
370
    25
  0
ENDBLK
  5
3F
330
3C
100
AcDbEntity
  8
0
100
AcDbBlockEnd
  0
BLOCK
  5
5D3
330
5D1
100
AcDbEntity
  8
0
100
AcDbBlockBegin
  2
block 3
 70
     0
 71
     0
 10
0.0
 20
0.0
 30
0.0
  3
block 3
  1

  0
SPLINE
  5
5D5
330
5D1
100
AcDbEntity
  8
Layer 1
370
     0
100
AcDbSpline
210
0.0
220
0.0
230
1.0
 70
    11
 71
     3
 72
    38
 73
    34
 74
     0
 42
0.0000000001
 43
0.0000000001
 40
0.0
 40
0.0
 40
0.0
 40
0.0
 40
1.0
 40
1.0
 40
1.0
 40
2.0
 40
2.0
 40
2.0
 40
3.0
 40
3.0
 40
3.0
 40
4.0
 40
4.0
 40
4.0
 40
5.0
 40
5.0
 40
5.0
 40
6.0
 40
6.0
 40
6.0
 40
7.0
 40
7.0
 40
7.0
 40
8.0
 40
8.0
 40
8.0
 40
9.0
 40
9.0
 40
9.0
 40
10.0
 40
10.0
 40
10.0
 40
11.0
 40
11.0
 40
11.0
 40
11.0
 10
1114.266869838621
 20
60.05111489384139
 30
0.0
 10
1114.266869838621
 20
60.05111489384139
 30
0.0
 10
1114.235863979254
 20
60.18581812731466
 30
0.0
 10
1114.235863979254
 20
60.18581812731466
 30
0.0
 10
1114.629293883669
 20
60.92479110890075
 30
0.0
 10
1115.265258510246
 20
61.26482203329491
 30
0.0
 10
1116.071410853795
 20
60.80249021917438
 30
0.0
 10
1116.778344447368
 20
60.44316676006282
 30
0.0
 10
1117.953811026935
 20
61.23106009753946
 30
0.0
 10
1118.693817537167
 20
61.4081380054813
 30
0.0
 10
1121.380302996565
 20
62.4189290208536
 30
0.0
 10
1124.207348351761
 20
63.11587183751965
 30
0.0
 10
1126.92621770872
 20
64.08153210203517
 30
0.0
 10
1126.92621770872
 20
64.08153210203517
 30
0.0
 10
1127.090893272915
 20
64.12804089108604
 30
0.0
 10
1127.28588567738
 20
64.1287299101831
 30
0.0
 10
1128.030026302194
 20
64.1342420629595
 30
0.0
 10
1128.561260026019
 20
63.4572808001079
 30
0.0
 10
1127.912204036598
 20
62.82958440269538
 30
0.0
 10
1127.221117882257
 20
62.16192489765397
 30
0.0
 10
1125.289108334129
 20
61.49357637351549
 30
0.0
 10
1124.396828603449
 20
61.06362845695632
 30
0.0
 10
1124.396828603449
 20
61.06362845695632
 30
0.0
 10
1118.03442626129
 20
58.62002222926861
 30
0.0
 10
1117.485278040941
 20
58.37300888297619
 30
0.0
 10
1117.378480080898
 20
58.32581107482827
 30
0.0
 10
1117.288907598282
 20
58.26931150887017
 30
0.0
 10
1117.202780211151
 20
58.20592175194158
 30
0.0
 10
1117.202780211151
 20
58.20592175194158
 30
0.0
 10
1116.934062763301
 20
58.00231660876332
 30
0.0
 10
1116.934062763301
 20
58.00231660876332
 30
0.0
 10
1115.675224872991
 20
57.09660100569113
 30
0.0
 10
1114.483910854192
 20
59.07236326648191
 30
0.0
 10
1114.266869838621
 20
60.05111489384139
 30
0.0
  0
HATCH
  5
5D6
330
5D1
100
AcDbEntity
  8
Layer 1
 62
   254
100
AcDbHatch
 10
0.0
 20
0.0
 30
0.0
210
0.0
220
0.0
230
1.0
  2
SOLID
 70
     1
 71
     0
 91
        1
 92
        1
 93
        2
 72
     4
 94
        3
 73
     0
 74
     0
 95
       38
 96
       34
 40
0.0
 40
0.0
 40
0.0
 40
0.0
 40
0.3527777776895833
 40
0.3527777776895833
 40
0.3527777776895833
 40
0.7055555553791667
 40
0.7055555553791667
 40
0.7055555553791667
 40
1.05833333306875
 40
1.05833333306875
 40
1.05833333306875
 40
1.411111110758333
 40
1.411111110758333
 40
1.411111110758333
 40
1.763888888447917
 40
1.763888888447917
 40
1.763888888447917
 40
2.1166666661375
 40
2.1166666661375
 40
2.1166666661375
 40
2.469444443827083
 40
2.469444443827083
 40
2.469444443827083
 40
2.822222221516667
 40
2.822222221516667
 40
2.822222221516667
 40
3.17499999920625
 40
3.17499999920625
 40
3.17499999920625
 40
3.527777776895833
 40
3.527777776895833
 40
3.527777776895833
 40
3.880555554585417
 40
3.880555554585417
 40
3.880555554585417
 40
3.880555554585417
 10
1114.266869838621
 20
60.05111489384139
 10
1114.266869838621
 20
60.05111489384139
 10
1114.235863979254
 20
60.18581812731466
 10
1114.235863979254
 20
60.18581812731466
 10
1114.629293883669
 20
60.92479110890075
 10
1115.265258510246
 20
61.26482203329491
 10
1116.071410853795
 20
60.80249021917438
 10
1116.778344447368
 20
60.44316676006282
 10
1117.953811026935
 20
61.23106009753946
 10
1118.693817537167
 20
61.4081380054813
 10
1121.380302996565
 20
62.4189290208536
 10
1124.207348351761
 20
63.11587183751965
 10
1126.92621770872
 20
64.08153210203517
 10
1126.92621770872
 20
64.08153210203517
 10
1127.090893272915
 20
64.12804089108604
 10
1127.28588567738
 20
64.1287299101831
 10
1128.030026302194
 20
64.1342420629595
 10
1128.561260026019
 20
63.4572808001079
 10
1127.912204036598
 20
62.82958440269538
 10
1127.221117882257
 20
62.16192489765397
 10
1125.289108334129
 20
61.49357637351549
 10
1124.396828603449
 20
61.06362845695632
 10
1124.396828603449
 20
61.06362845695632
 10
1118.03442626129
 20
58.62002222926861
 10
1117.485278040941
 20
58.37300888297619
 10
1117.378480080898
 20
58.32581107482827
 10
1117.288907598282
 20
58.26931150887017
 10
1117.202780211151
 20
58.20592175194158
 10
1117.202780211151
 20
58.20592175194158
 10
1116.934062763301
 20
58.00231660876332
 10
1116.934062763301
 20
58.00231660876332
 10
1115.675224872991
 20
57.09660100569113
 10
1114.483910854192
 20
59.07236326648191
 10
1114.266869838621
 20
60.05111489384139
 72
     1
 10
1114.266869838621
 20
60.05111489384139
 11
1114.266869838621
 21
60.05111489384139
 97
        0
 75
     2
 76
     1
 98
        0
  0
SPLINE
  5
5D7
330
5D1
100
AcDbEntity
  8
Layer 1
370
     0
100
AcDbSpline
210
0.0
220
0.0
230
1.0
 70
    11
 71
     3
 72
    14
 73
    10
 74
     0
 42
0.0000000001
 43
0.0000000001
 40
0.0
 40
0.0
 40
0.0
 40
0.0
 40
1.0
 40
1.0
 40
1.0
 40
2.0
 40
2.0
 40
2.0
 40
3.0
 40
3.0
 40
3.0
 40
3.0
 10
1087.751347926847
 20
65.5711913898572
 30
0.0
 10
1087.53568494947
 20
62.63872611281254
 30
0.0
 10
1086.331968586924
 20
60.69810382597131
 30
0.0
 10
1084.896741807769
 20
58.27620169984068
 30
0.0
 10
1084.914656304292
 20
61.31787650376776
 30
0.0
 10
1085.328067762522
 20
64.03950193711513
 30
0.0
 10
1087.196687553722
 20
66.01250812151771
 30
0.0
 10
1087.436466199495
 20
66.33944768306792
 30
0.0
 10
1087.811981607387
 20
66.2826036075613
 30
0.0
 10
1087.751347926847
 20
65.5711913898572
 30
0.0
  0
SPLINE
  5
5D8
330
5D1
100
AcDbEntity
  8
Layer 1
370
     0
100
AcDbSpline
210
0.0
220
0.0
230
1.0
 70
    11
 71
     3
 72
    14
 73
    10
 74
     0
 42
0.0000000001
 43
0.0000000001
 40
0.0
 40
0.0
 40
0.0
 40
0.0
 40
1.0
 40
1.0
 40
1.0
 40
2.0
 40
2.0
 40
2.0
 40
3.0
 40
3.0
 40
3.0
 40
3.0
 10
1116.983672138289
 20
53.31767576792058
 30
0.0
 10
1116.97402587093
 20
53.07135144072522
 30
0.0
 10
1116.386981600244
 20
52.42263996085268
 30
0.0
 10
1115.330715324466
 20
52.23970539058591
 30
0.0
 10
1115.137789977292
 20
53.48131780346995
 30
0.0
 10
1115.737236591725
 20
54.20651040311504
 30
0.0
 10
1116.324280862412
 20
54.20651040311504
 30
0.0
 10
1116.810039325832
 20
54.20651040311504
 30
0.0
 10
1117.010543883074
 20
54.02426485194533
 30
0.0
 10
1116.983672138289
 20
53.31767576792058
 30
0.0
  0
SPLINE
  5
5D9
330
5D1
100
AcDbEntity
  8
Layer 1
370
     0
100
AcDbSpline
210
0.0
220
0.0
230
1.0
 70
    11
 71
     3
 72
   200
 73
   196
 74
     0
 42
0.0000000001
 43
0.0000000001
 40
0.0
 40
0.0
 40
0.0
 40
0.0
 40
1.0
 40
1.0
 40
1.0
 40
2.0
 40
2.0
 40
2.0
 40
3.0
 40
3.0
 40
3.0
 40
4.0
 40
4.0
 40
4.0
 40
5.0
 40
5.0
 40
5.0
 40
6.0
 40
6.0
 40
6.0
 40
7.0
 40
7.0
 40
7.0
 40
8.0
 40
8.0
 40
8.0
 40
9.0
 40
9.0
 40
9.0
 40
10.0
 40
10.0
 40
10.0
 40
11.0
 40
11.0
 40
11.0
 40
12.0
 40
12.0
 40
12.0
 40
13.0
 40
13.0
 40
13.0
 40
14.0
 40
14.0
 40
14.0
 40
15.0
 40
15.0
 40
15.0
 40
16.0
 40
16.0
 40
16.0
 40
17.0
 40
17.0
 40
17.0
 40
18.0
 40
18.0
 40
18.0
 40
19.0
 40
19.0
 40
19.0
 40
20.0
 40
20.0
 40
20.0
 40
21.0
 40
21.0
 40
21.0
 40
22.0
 40
22.0
 40
22.0
 40
23.0
 40
23.0
 40
23.0
 40
24.0
 40
24.0
 40
24.0
 40
25.0
 40
25.0
 40
25.0
 40
26.0
 40
26.0
 40
26.0
 40
27.0
 40
27.0
 40
27.0
 40
28.0
 40
28.0
 40
28.0
 40
29.0
 40
29.0
 40
29.0
 40
30.0
 40
30.0
 40
30.0
 40
31.0
 40
31.0
 40
31.0
 40
32.0
 40
32.0
 40
32.0
 40
33.0
 40
33.0
 40
33.0
 40
34.0
 40
34.0
 40
34.0
 40
35.0
 40
35.0
 40
35.0
 40
36.0
 40
36.0
 40
36.0
 40
37.0
 40
37.0
 40
37.0
 40
38.0
 40
38.0
 40
38.0
 40
39.0
 40
39.0
 40
39.0
 40
40.0
 40
40.0
 40
40.0
 40
41.0
 40
41.0
 40
41.0
 40
42.0
 40
42.0
 40
42.0
 40
43.0
 40
43.0
 40
43.0
 40
44.0
 40
44.0
 40
44.0
 40
45.0
 40
45.0
 40
45.0
 40
46.0
 40
46.0
 40
46.0
 40
47.0
 40
47.0
 40
47.0
 40
48.0
 40
48.0
 40
48.0
 40
49.0
 40
49.0
 40
49.0
 40
50.0
 40
50.0
 40
50.0
 40
51.0
 40
51.0
 40
51.0
 40
52.0
 40
52.0
 40
52.0
 40
53.0
 40
53.0
 40
53.0
 40
54.0
 40
54.0
 40
54.0
 40
55.0
 40
55.0
 40
55.0
 40
56.0
 40
56.0
 40
56.0
 40
57.0
 40
57.0
 40
57.0
 40
58.0
 40
58.0
 40
58.0
 40
59.0
 40
59.0
 40
59.0
 40
60.0
 40
60.0
 40
60.0
 40
61.0
 40
61.0
 40
61.0
 40
62.0
 40
62.0
 40
62.0
 40
63.0
 40
63.0
 40
63.0
 40
64.0
 40
64.0
 40
64.0
 40
65.0
 40
65.0
 40
65.0
 40
65.0
 10
1124.780612240506
 20
50.73282062533763
 30
0.0
 10
1124.780612240506
 20
50.73282062533763
 30
0.0
 10
1125.009366580727
 20
49.77784015682638
 30
0.0
 10
1125.009366580727
 20
49.77784015682638
 30
0.0
 10
1125.135457075487
 20
49.28243542604745
 30
0.0
 10
1125.280840104964
 20
48.82217066921807
 30
0.0
 10
1125.524063846223
 20
48.36914061290771
 30
0.0
 10
1127.067466623615
 20
46.30380586950044
 30
0.0
 10
1131.007277820547
 20
46.54048392933711
 30
0.0
 10
1133.026103774903
 20
47.166457779007
 30
0.0
 10
1134.144381769415
 20
47.51406791346871
 30
0.0
 10
1135.218562541716
 20
48.08836533085986
 30
0.0
 10
1136.225908461603
 20
48.68712292619627
 30
0.0
 10
1138.793882636309
 20
46.99902613842386
 30
0.0
 10
1142.037095526123
 20
46.47674966285998
 30
0.0
 10
1145.28650958781
 20
46.46400280956455
 30
0.0
 10
1148.607581635591
 20
46.45160046581766
 30
0.0
 10
1151.998244612174
 20
46.97422145093006
 30
0.0
 10
1154.785326859741
 20
47.38005369909249
 30
0.0
 10
1157.74948701525
 20
47.57022296987828
 30
0.0
 10
1160.112822518132
 20
48.96789820824414
 30
0.0
 10
1163.23132295138
 20
48.29713811726599
 30
0.0
 10
1163.903805590101
 20
48.52175834290428
 30
0.0
 10
1164.433661275732
 20
48.86488985323517
 30
0.0
 10
1164.384051900744
 20
49.70101452750531
 30
0.0
 10
1164.082261536237
 20
50.44102103773697
 30
0.0
 10
1163.664026944327
 20
50.95812987007297
 30
0.0
 10
1162.792417786559
 20
51.02737628932649
 30
0.0
 10
1161.322051033454
 20
50.39485675823462
 30
0.0
 10
1159.662204028661
 20
50.58226995263221
 30
0.0
 10
1158.127069480434
 20
50.20537650654588
 30
0.0
 10
1154.22515433384
 20
49.29587129843992
 30
0.0
 10
1150.071058197725
 20
48.93895940616804
 30
0.0
 10
1145.655823823829
 20
48.6998697794917
 30
0.0
 10
1142.91835095125
 20
48.72295191924287
 30
0.0
 10
1139.458097045865
 20
48.76532659371145
 30
0.0
 10
1137.549514147036
 20
51.07250704018326
 30
0.0
 10
1137.338674303339
 20
51.76772730910668
 30
0.0
 10
1137.909182115696
 20
52.69066838960511
 30
0.0
 10
1137.68180581367
 20
53.67906628432329
 30
0.0
 10
1137.325582940495
 20
54.36877440047031
 30
0.0
 10
1136.741983765294
 20
54.82524955226591
 30
0.0
 10
1135.893801256825
 20
54.60131834572467
 30
0.0
 10
1134.730737021005
 20
53.76105955687224
 30
0.0
 10
1134.746584460237
 20
52.37440862405918
 30
0.0
 10
1134.850626343891
 20
51.11384818600627
 30
0.0
 10
1133.17630993806
 20
48.94998371172084
 30
0.0
 10
1129.32262612826
 20
48.04667967548833
 30
0.0
 10
1127.672425390825
 20
49.724441176805
 30
0.0
 10
1127.586298003694
 20
50.02106389808501
 30
0.0
 10
1127.420933420402
 20
50.60328503509223
 30
0.0
 10
1127.589054080082
 20
51.03151040390879
 30
0.0
 10
1127.604212500217
 20
51.08318683618754
 30
0.0
 10
1127.620059939449
 20
51.13934189259711
 30
0.0
 10
1127.627639149517
 20
51.20307615907424
 30
0.0
 10
1127.713766536648
 20
51.85316567714088
 30
0.0
 10
1127.500170616562
 20
52.3403021787552
 30
0.0
 10
1126.905547135808
 20
52.55148653200102
 30
0.0
 10
1125.774866797549
 20
52.96662053797363
 30
0.0
 10
1125.841701649963
 20
53.47408310295093
 30
0.0
 10
1125.041061459191
 20
54.18067218697567
 30
0.0
 10
1124.217683638216
 20
54.93893770327916
 30
0.0
 10
1123.258569055123
 20
54.57375758184268
 30
0.0
 10
1122.686683204571
 20
53.81411402734508
 30
0.0
 10
1122.546123308773
 20
51.78012965285358
 30
0.0
 10
1121.109518491424
 20
50.11304794754118
 30
0.0
 10
1119.529597701888
 20
49.01785209278026
 30
0.0
 10
1118.52018472471
 20
48.66886392012445
 30
0.0
 10
1117.255145662527
 20
48.78427461888032
 30
0.0
 10
1116.429011765164
 20
49.34479165433047
 30
0.0
 10
1116.154782164538
 20
49.53427190601921
 30
0.0
 10
1116.058319490951
 20
49.7437337115224
 30
0.0
 10
1116.052807338174
 20
49.89152830783962
 30
0.0
 10
1117.370211851734
 20
50.2622205820525
 30
0.0
 10
1118.551190584078
 20
51.15794540821746
 30
0.0
 10
1119.225740280089
 20
52.3885335155487
 30
0.0
 10
1120.02431341357
 20
54.5313829073741
 30
0.0
 10
1118.475398483402
 20
56.81858180003147
 30
0.0
 10
1116.094837503094
 20
56.48647459525338
 30
0.0
 10
1113.899622659893
 20
56.1791720779691
 30
0.0
 10
1112.817173658428
 20
54.62956812870372
 30
0.0
 10
1112.921215542082
 20
51.95927461808657
 30
0.0
 10
1111.714054084051
 20
52.00957301217122
 30
0.0
 10
1110.632294101682
 20
52.41127114575135
 30
0.0
 10
1109.510571011685
 20
52.86257865431908
 30
0.0
 10
1108.548700352203
 20
53.25118542505526
 30
0.0
 10
1108.376445577941
 20
54.15414495173924
 30
0.0
 10
1106.975669753638
 20
53.89266220440878
 30
0.0
 10
1105.873928217455
 20
52.72753091129729
 30
0.0
 10
1106.646318625248
 20
51.96203069447477
 30
0.0
 10
1107.368410638956
 20
51.04184569036454
 30
0.0
 10
1108.091880690859
 20
50.12407225309398
 30
0.0
 10
1108.058807774201
 20
48.74741209718815
 30
0.0
 10
1106.912969015807
 20
48.09697806957298
 30
0.0
 10
1105.270347488439
 20
47.70768227973975
 30
0.0
 10
1103.896443408922
 20
49.14566513528303
 30
0.0
 10
1102.897365718199
 20
50.21157767841933
 30
0.0
 10
1102.910457081043
 20
50.84719779544793
 30
0.0
 10
1102.929060596664
 20
52.08088648871589
 30
0.0
 10
1102.765763070663
 20
52.62452255628832
 30
0.0
 10
1102.440546056855
 20
53.71558429646694
 30
0.0
 10
1101.735679520573
 20
54.65230575890637
 30
0.0
 10
1100.441701656313
 20
54.21994627550752
 30
0.0
 10
1099.633482255474
 20
53.14507648410957
 30
0.0
 10
1099.942851830049
 20
51.8576443012717
 30
0.0
 10
1100.385891109452
 20
50.76107040831668
 30
0.0
 10
1100.024156083501
 20
49.63796928012523
 30
0.0
 10
1099.48947726419
 20
48.54277342536431
 30
0.0
 10
1098.44079019848
 20
47.98604599494794
 30
0.0
 10
1097.221915415799
 20
47.69562444554138
 30
0.0
 10
1095.099736596885
 20
47.98707952359351
 30
0.0
 10
1094.221926267243
 20
50.16300183207731
 30
0.0
 10
1094.272224661328
 20
50.45204534328977
 30
0.0
 10
1094.405894366156
 20
51.2743896356189
 30
0.0
 10
1094.40727240435
 20
52.11258136718019
 30
0.0
 10
1094.408650442544
 20
52.63003470906472
 30
0.0
 10
1094.36041910575
 20
53.18986272541782
 30
0.0
 10
1094.193676484264
 20
53.64633787721342
 30
0.0
 10
1093.647973359401
 20
55.12945148361347
 30
0.0
 10
1091.423819714123
 20
55.11394855392985
 30
0.0
 10
1091.425197752317
 20
52.56319985665087
 30
0.0
 10
1091.425197752317
 20
51.95307344621312
 30
0.0
 10
1091.516148273128
 20
51.34122448803275
 30
0.0
 10
1091.658775226217
 20
50.75004610276388
 30
0.0
 10
1090.774074705605
 20
48.93275823429459
 30
0.0
 10
1088.952997232102
 20
48.56792262240663
 30
0.0
 10
1087.674177787977
 20
48.81252440185937
 30
0.0
 10
1085.796600748516
 20
49.77060545630735
 30
0.0
 10
1085.190263943112
 20
51.81320256951198
 30
0.0
 10
1084.924991590748
 20
53.91608885370848
 30
0.0
 10
1086.268578829995
 20
55.76817218657879
 30
0.0
 10
1087.401326225546
 20
57.39081216013147
 30
0.0
 10
1088.573347709628
 20
59.64493813613043
 30
0.0
 10
1089.918312987069
 20
62.14366589158215
 30
0.0
 10
1090.439211424439
 20
63.16548121250725
 30
0.0
 10
1090.543942327191
 20
66.24574108586913
 30
0.0
 10
1090.222859427965
 20
70.04085827242035
 30
0.0
 10
1085.554755045452
 20
68.95703123276074
 30
0.0
 10
1084.559122450215
 20
66.94578448847189
 30
0.0
 10
1082.181317546295
 20
63.22060274027124
 30
0.0
 10
1081.77135118355
 20
58.21418998110618
 30
0.0
 10
1082.190274794557
 20
53.9770670437974
 30
0.0
 10
1081.723808865854
 20
53.10063475234984
 30
0.0
 10
1081.020320367766
 20
52.42746309453202
 30
0.0
 10
1080.327167156134
 20
51.73430988289976
 30
0.0
 10
1079.687757434071
 20
51.18378362435683
 30
0.0
 10
1079.164102920313
 20
51.03495549939404
 30
0.0
 10
1078.790654569712
 20
50.18057181905208
 30
0.0
 10
1078.976689725916
 20
49.83571776097858
 30
0.0
 10
1079.031122234583
 20
49.7809407427631
 30
0.0
 10
1079.472783475792
 20
49.51463486175329
 30
0.0
 10
1080.832907173368
 20
49.09743379848953
 30
0.0
 10
1081.641815593305
 20
49.92632377224064
 30
0.0
 10
1082.508601617394
 20
50.7572808032829
 30
0.0
 10
1082.508601617394
 20
50.7572808032829
 30
0.0
 10
1082.886184082577
 20
51.10868054277839
 30
0.0
 10
1082.886184082577
 20
51.10868054277839
 30
0.0
 10
1083.782597927839
 20
49.2321370319628
 30
0.0
 10
1085.151678873677
 20
47.07860784413313
 30
0.0
 10
1087.357918022431
 20
46.46503633821013
 30
0.0
 10
1088.636737466556
 20
46.25040688947907
 30
0.0
 10
1090.185652396724
 20
46.25867511864367
 30
0.0
 10
1091.343893498866
 20
46.98214517054613
 30
0.0
 10
1091.343893498866
 20
46.98214517054613
 30
0.0
 10
1093.049904783161
 20
48.07768553485558
 30
0.0
 10
1093.049904783161
 20
48.07768553485558
 30
0.0
 10
1094.290828176948
 20
46.61420897272145
 30
0.0
 10
1095.901754825851
 20
45.43805337405716
 30
0.0
 10
1098.028067759347
 20
45.63821342175017
 30
0.0
 10
1099.430221621844
 20
45.69884710229057
 30
0.0
 10
1100.539542368094
 20
46.6975802834645
 30
0.0
 10
1101.435267194259
 20
47.66771917211085
 30
0.0
 10
1101.435267194259
 20
47.66771917211085
 30
0.0
 10
1101.949964459756
 20
48.24270560859905
 30
0.0
 10
1101.949964459756
 20
48.24270560859905
 30
0.0
 10
1103.330069711147
 20
46.79128688066329
 30
0.0
 10
1104.937551264564
 20
45.43839788360568
 30
0.0
 10
1107.342916932366
 20
45.88384872984849
 30
0.0
 10
1108.817417800053
 20
46.0743625101828
 30
0.0
 10
1109.602210551593
 20
46.88843857334734
 30
0.0
 10
1110.178230516726
 20
48.1786268325734
 30
0.0
 10
1110.449704040964
 20
48.81011283501969
 30
0.0
 10
1110.3711558639
 20
49.49878742252114
 30
0.0
 10
1110.302942973292
 20
50.15783418884944
 30
0.0
 10
1111.3054657595
 20
49.89945202745569
 30
0.0
 10
1112.345195576949
 20
49.68551159782168
 30
0.0
 10
1113.380791279815
 20
49.64623750928983
 30
0.0
 10
1113.734947095698
 20
48.73053112931043
 30
0.0
 10
1114.361265454917
 20
47.6670301530138
 30
0.0
 10
1115.284551044964
 20
47.24156086058544
 30
0.0
 10
1117.283395445506
 20
46.32068683737816
 30
0.0
 10
1117.396394577422
 20
46.47227103872915
 30
0.0
 10
1119.276038674174
 20
46.57183429825287
 30
0.0
 10
1121.675203170102
 20
47.01728514449568
 30
0.0
 10
1123.437714020356
 20
48.89107257892307
 30
0.0
 10
1124.780612240506
 20
50.73282062533763
 30
0.0
  0
SPLINE
  5
5DA
330
5D1
100
AcDbEntity
  8
Layer 1
370
     0
100
AcDbSpline
210
0.0
220
0.0
230
1.0
 70
    11
 71
     3
 72
    53
 73
    49
 74
     0
 42
0.0000000001
 43
0.0000000001
 40
0.0
 40
0.0
 40
0.0
 40
0.0
 40
1.0
 40
1.0
 40
1.0
 40
2.0
 40
2.0
 40
2.0
 40
3.0
 40
3.0
 40
3.0
 40
4.0
 40
4.0
 40
4.0
 40
5.0
 40
5.0
 40
5.0
 40
6.0
 40
6.0
 40
6.0
 40
7.0
 40
7.0
 40
7.0
 40
8.0
 40
8.0
 40
8.0
 40
9.0
 40
9.0
 40
9.0
 40
10.0
 40
10.0
 40
10.0
 40
11.0
 40
11.0
 40
11.0
 40
12.0
 40
12.0
 40
12.0
 40
13.0
 40
13.0
 40
13.0
 40
14.0
 40
14.0
 40
14.0
 40
15.0
 40
15.0
 40
15.0
 40
16.0
 40
16.0
 40
16.0
 40
16.0
 10
1066.208476838483
 20
64.0984130699129
 30
0.0
 10
1066.208476838483
 20
64.0984130699129
 30
0.0
 10
1065.699291725763
 20
64.56935762274655
 30
0.0
 10
1065.699291725763
 20
64.56935762274655
 30
0.0
 10
1065.699291725763
 20
64.56935762274655
 30
0.0
 10
1066.189873322862
 20
64.80638019213174
 30
0.0
 10
1066.189873322862
 20
64.80638019213174
 30
0.0
 10
1066.960885692461
 20
65.05373804797269
 30
0.0
 10
1067.79735487628
 20
65.11540525715866
 30
0.0
 10
1068.189406742501
 20
64.22036945009074
 30
0.0
 10
1068.285180396991
 20
63.43523218900231
 30
0.0
 10
1067.957896325893
 20
62.96118705023193
 30
0.0
 10
1067.401857914573
 20
62.47198349132645
 30
0.0
 10
1066.205031742997
 20
62.36311847399256
 30
0.0
 10
1065.403013514031
 20
61.26034340916409
 30
0.0
 10
1064.6630070038
 20
60.43386500225265
 30
0.0
 10
1063.809312342555
 20
58.42158472931822
 30
0.0
 10
1064.512111821546
 20
56.00381671776988
 30
0.0
 10
1064.930346413455
 20
53.9770670437974
 30
0.0
 10
1064.930346413455
 20
53.9770670437974
 30
0.0
 10
1065.18597249846
 20
53.72833114976236
 30
0.0
 10
1065.18597249846
 20
53.72833114976236
 30
0.0
 10
1065.646926274387
 20
53.27185599796676
 30
0.0
 10
1066.021752663182
 20
52.78609753454653
 30
0.0
 10
1065.988679746524
 20
52.08915471788049
 30
0.0
 10
1065.549774581703
 20
50.90920951418242
 30
0.0
 10
1063.20779867083
 20
50.3352566063398
 30
0.0
 10
1062.958373757698
 20
52.21903481767441
 30
0.0
 10
1062.534627013012
 20
52.96662053797363
 30
0.0
 10
1062.364439296041
 20
53.50922307690048
 30
0.0
 10
1062.255574278707
 20
54.06284992138012
 30
0.0
 10
1062.255574278707
 20
54.06284992138012
 30
0.0
 10
1062.179093158934
 20
54.4996880289098
 30
0.0
 10
1062.179093158934
 20
54.4996880289098
 30
0.0
 10
1062.035088167651
 20
53.40828177918265
 30
0.0
 10
1062.210099018302
 20
52.13738605467399
 30
0.0
 10
1062.39268907902
 20
51.06492783011571
 30
0.0
 10
1062.768893506009
 20
49.64485947109574
 30
0.0
 10
1063.748678662014
 20
48.56034341233908
 30
0.0
 10
1065.152899581802
 20
47.99018010953024
 30
0.0
 10
1068.371307784123
 20
47.2270914595474
 30
0.0
 10
1071.026098365056
 20
49.42575139823384
 30
0.0
 10
1072.862334258694
 20
51.80458983079885
 30
0.0
 10
1075.754147409013
 20
55.93422578896784
 30
0.0
 10
1078.322121583718
 20
61.11185979374982
 30
0.0
 10
1075.985657825622
 20
66.1144829478811
 30
0.0
 10
1073.197197539861
 20
69.60367565534214
 30
0.0
 10
1067.727074928381
 20
67.98310273908062
 30
0.0
 10
1066.208476838483
 20
64.0984130699129
 30
0.0
  0
SPLINE
  5
5DB
330
5D1
100
AcDbEntity
  8
Layer 1
370
     0
100
AcDbSpline
210
0.0
220
0.0
230
1.0
 70
    11
 71
     3
 72
    23
 73
    19
 74
     0
 42
0.0000000001
 43
0.0000000001
 40
0.0
 40
0.0
 40
0.0
 40
0.0
 40
1.0
 40
1.0
 40
1.0
 40
2.0
 40
2.0
 40
2.0
 40
3.0
 40
3.0
 40
3.0
 40
4.0
 40
4.0
 40
4.0
 40
5.0
 40
5.0
 40
5.0
 40
6.0
 40
6.0
 40
6.0
 40
6.0
 10
1074.868068850207
 20
50.09788952740609
 30
0.0
 10
1072.603263078203
 20
47.02245278772356
 30
0.0
 10
1068.913565813501
 20
44.97296548354843
 30
0.0
 10
1064.964797368307
 20
45.52900389486775
 30
0.0
 10
1062.181160216226
 20
46.27038844329351
 30
0.0
 10
1060.37937527744
 20
48.97478839921464
 30
0.0
 10
1059.919110520611
 20
51.63440211382751
 30
0.0
 10
1059.358248975612
 20
55.11119247754165
 30
0.0
 10
1060.300827100376
 20
58.27757973803477
 30
0.0
 10
1062.137062994014
 20
60.89481877817908
 30
0.0
 10
1062.687589252557
 20
64.69648164615226
 30
0.0
 10
1064.8497311791
 20
68.34724933187152
 30
0.0
 10
1068.622799754546
 20
70.02535534273672
 30
0.0
 10
1070.975110951874
 20
70.88352862811246
 30
0.0
 10
1076.241972929724
 20
71.26145560284436
 30
0.0
 10
1078.026532391084
 20
67.40398218801012
 30
0.0
 10
1081.266300185413
 20
61.42915308794132
 30
0.0
 10
1078.017575142822
 20
54.86900226492858
 30
0.0
 10
1074.868068850207
 20
50.09788952740609
 30
0.0
  0
SPLINE
  5
5DC
330
5D1
100
AcDbEntity
  8
Layer 1
370
     0
100
AcDbSpline
210
0.0
220
0.0
230
1.0
 70
    11
 71
     3
 72
    17
 73
    13
 74
     0
 42
0.0000000001
 43
0.0000000001
 40
0.0
 40
0.0
 40
0.0
 40
0.0
 40
1.0
 40
1.0
 40
1.0
 40
2.0
 40
2.0
 40
2.0
 40
3.0
 40
3.0
 40
3.0
 40
4.0
 40
4.0
 40
4.0
 40
4.0
 10
1137.450984416158
 20
57.13794215151413
 30
0.0
 10
1137.603946655703
 20
57.60303004202286
 30
0.0
 10
1137.554337280716
 20
58.22211370072225
 30
0.0
 10
1137.275973565507
 20
58.65033906953881
 30
0.0
 10
1136.673770874686
 20
59.40826007629377
 30
0.0
 10
1135.513462715254
 20
59.94672850063832
 30
0.0
 10
1134.793437758836
 20
58.95350747224079
 30
0.0
 10
1134.431013713788
 20
58.06708440388601
 30
0.0
 10
1134.702487238026
 20
57.18479545011353
 30
0.0
 10
1135.414243965279
 20
56.57639158741841
 30
0.0
 10
1136.170786933839
 20
56.39517956489426
 30
0.0
 10
1137.032749824249
 20
56.21396754237012
 30
0.0
 10
1137.450984416158
 20
57.13794215151413
 30
0.0
  0
SPLINE
  5
5DD
330
5D1
100
AcDbEntity
  8
Layer 1
370
     0
100
AcDbSpline
210
0.0
220
0.0
230
1.0
 70
    11
 71
     3
 72
    17
 73
    13
 74
     0
 42
0.0000000001
 43
0.0000000001
 40
0.0
 40
0.0
 40
0.0
 40
0.0
 40
1.0
 40
1.0
 40
1.0
 40
2.0
 40
2.0
 40
2.0
 40
3.0
 40
3.0
 40
3.0
 40
4.0
 40
4.0
 40
4.0
 40
4.0
 10
1094.01246446174
 20
58.55766600098558
 30
0.0
 10
1093.623168671907
 20
57.99956053237511
 30
0.0
 10
1092.661987031522
 20
57.99818249418102
 30
0.0
 10
1092.165204262549
 20
58.20109861826223
 30
0.0
 10
1091.446557344326
 20
58.49427624405699
 30
0.0
 10
1090.763739419149
 20
59.44236652159775
 30
0.0
 10
1091.290150009296
 20
60.35910643022272
 30
0.0
 10
1091.877883299079
 20
61.38229978934193
 30
0.0
 10
1093.097447100858
 20
61.10117999774554
 30
0.0
 10
1093.727210555561
 20
60.58820527999184
 30
0.0
 10
1094.122018498171
 20
60.26712238076656
 30
0.0
 10
1094.538186032789
 20
59.3093858358671
 30
0.0
 10
1094.01246446174
 20
58.55766600098558
 30
0.0
  0
HATCH
  5
5DE
330
5D1
100
AcDbEntity
  8
Layer 1
 62
   152
100
AcDbHatch
 10
0.0
 20
0.0
 30
0.0
210
0.0
220
0.0
230
1.0
  2
SOLID
 70
     1
 71
     0
 91
        7
 92
        1
 93
        2
 72
     4
 94
        3
 73
     0
 74
     0
 95
       14
 96
       10
 40
0.0
 40
0.0
 40
0.0
 40
0.0
 40
0.3527777776895833
 40
0.3527777776895833
 40
0.3527777776895833
 40
0.7055555553791667
 40
0.7055555553791667
 40
0.7055555553791667
 40
1.05833333306875
 40
1.05833333306875
 40
1.05833333306875
 40
1.05833333306875
 10
1087.751347926847
 20
65.5711913898572
 10
1087.53568494947
 20
62.63872611281254
 10
1086.331968586924
 20
60.69810382597131
 10
1084.896741807769
 20
58.27620169984068
 10
1084.914656304292
 20
61.31787650376776
 10
1085.328067762522
 20
64.03950193711513
 10
1087.196687553722
 20
66.01250812151771
 10
1087.436466199495
 20
66.33944768306792
 10
1087.811981607387
 20
66.2826036075613
 10
1087.751347926847
 20
65.5711913898572
 72
     1
 10
1087.751347926847
 20
65.5711913898572
 11
1087.751347926847
 21
65.5711913898572
 97
        0
 92
        1
 93
        2
 72
     4
 94
        3
 73
     0
 74
     0
 95
       14
 96
       10
 40
0.0
 40
0.0
 40
0.0
 40
0.0
 40
0.3527777776895833
 40
0.3527777776895833
 40
0.3527777776895833
 40
0.7055555553791667
 40
0.7055555553791667
 40
0.7055555553791667
 40
1.05833333306875
 40
1.05833333306875
 40
1.05833333306875
 40
1.05833333306875
 10
1116.983672138289
 20
53.31767576792058
 10
1116.97402587093
 20
53.07135144072522
 10
1116.386981600244
 20
52.42263996085268
 10
1115.330715324466
 20
52.23970539058591
 10
1115.137789977292
 20
53.48131780346995
 10
1115.737236591725
 20
54.20651040311504
 10
1116.324280862412
 20
54.20651040311504
 10
1116.810039325832
 20
54.20651040311504
 10
1117.010543883074
 20
54.02426485194533
 10
1116.983672138289
 20
53.31767576792058
 72
     1
 10
1116.983672138289
 20
53.31767576792058
 11
1116.983672138289
 21
53.31767576792058
 97
        0
 92
        1
 93
        2
 72
     4
 94
        3
 73
     0
 74
     0
 95
      200
 96
      196
 40
0.0
 40
0.0
 40
0.0
 40
0.0
 40
0.3527777776895833
 40
0.3527777776895833
 40
0.3527777776895833
 40
0.7055555553791667
 40
0.7055555553791667
 40
0.7055555553791667
 40
1.05833333306875
 40
1.05833333306875
 40
1.05833333306875
 40
1.411111110758333
 40
1.411111110758333
 40
1.411111110758333
 40
1.763888888447917
 40
1.763888888447917
 40
1.763888888447917
 40
2.1166666661375
 40
2.1166666661375
 40
2.1166666661375
 40
2.469444443827083
 40
2.469444443827083
 40
2.469444443827083
 40
2.822222221516667
 40
2.822222221516667
 40
2.822222221516667
 40
3.17499999920625
 40
3.17499999920625
 40
3.17499999920625
 40
3.527777776895833
 40
3.527777776895833
 40
3.527777776895833
 40
3.880555554585417
 40
3.880555554585417
 40
3.880555554585417
 40
4.233333332275
 40
4.233333332275
 40
4.233333332275
 40
4.586111109964584
 40
4.586111109964584
 40
4.586111109964584
 40
4.938888887654167
 40
4.938888887654167
 40
4.938888887654167
 40
5.29166666534375
 40
5.29166666534375
 40
5.29166666534375
 40
5.644444443033334
 40
5.644444443033334
 40
5.644444443033334
 40
5.997222220722917
 40
5.997222220722917
 40
5.997222220722917
 40
6.349999998412501
 40
6.349999998412501
 40
6.349999998412501
 40
6.702777776102083
 40
6.702777776102083
 40
6.702777776102083
 40
7.055555553791667
 40
7.055555553791667
 40
7.055555553791667
 40
7.40833333148125
 40
7.40833333148125
 40
7.40833333148125
 40
7.761111109170834
 40
7.761111109170834
 40
7.761111109170834
 40
8.113888886860417
 40
8.113888886860417
 40
8.113888886860417
 40
8.46666666455
 40
8.46666666455
 40
8.46666666455
 40
8.819444442239584
 40
8.819444442239584
 40
8.819444442239584
 40
9.172222219929168
 40
9.172222219929168
 40
9.172222219929168
 40
9.52499999761875
 40
9.52499999761875
 40
9.52499999761875
 40
9.877777775308333
 40
9.877777775308333
 40
9.877777775308333
 40
10.23055555299792
 40
10.23055555299792
 40
10.23055555299792
 40
10.5833333306875
 40
10.5833333306875
 40
10.5833333306875
 40
10.93611110837708
 40
10.93611110837708
 40
10.93611110837708
 40
11.28888888606667
 40
11.28888888606667
 40
11.28888888606667
 40
11.64166666375625
 40
11.64166666375625
 40
11.64166666375625
 40
11.99444444144583
 40
11.99444444144583
 40
11.99444444144583
 40
12.34722221913542
 40
12.34722221913542
 40
12.34722221913542
 40
12.699999996825
 40
12.699999996825
 40
12.699999996825
 40
13.05277777451458
 40
13.05277777451458
 40
13.05277777451458
 40
13.40555555220417
 40
13.40555555220417
 40
13.40555555220417
 40
13.75833332989375
 40
13.75833332989375
 40
13.75833332989375
 40
14.11111110758333
 40
14.11111110758333
 40
14.11111110758333
 40
14.46388888527292
 40
14.46388888527292
 40
14.46388888527292
 40
14.8166666629625
 40
14.8166666629625
 40
14.8166666629625
 40
15.16944444065208
 40
15.16944444065208
 40
15.16944444065208
 40
15.52222221834167
 40
15.52222221834167
 40
15.52222221834167
 40
15.87499999603125
 40
15.87499999603125
 40
15.87499999603125
 40
16.22777777372083
 40
16.22777777372083
 40
16.22777777372083
 40
16.58055555141042
 40
16.58055555141042
 40
16.58055555141042
 40
16.9333333291
 40
16.9333333291
 40
16.9333333291
 40
17.28611110678958
 40
17.28611110678958
 40
17.28611110678958
 40
17.63888888447917
 40
17.63888888447917
 40
17.63888888447917
 40
17.99166666216875
 40
17.99166666216875
 40
17.99166666216875
 40
18.34444443985834
 40
18.34444443985834
 40
18.34444443985834
 40
18.69722221754792
 40
18.69722221754792
 40
18.69722221754792
 40
19.0499999952375
 40
19.0499999952375
 40
19.0499999952375
 40
19.40277777292708
 40
19.40277777292708
 40
19.40277777292708
 40
19.75555555061667
 40
19.75555555061667
 40
19.75555555061667
 40
20.10833332830625
 40
20.10833332830625
 40
20.10833332830625
 40
20.46111110599583
 40
20.46111110599583
 40
20.46111110599583
 40
20.81388888368542
 40
20.81388888368542
 40
20.81388888368542
 40
21.166666661375
 40
21.166666661375
 40
21.166666661375
 40
21.51944443906459
 40
21.51944443906459
 40
21.51944443906459
 40
21.87222221675417
 40
21.87222221675417
 40
21.87222221675417
 40
22.22499999444375
 40
22.22499999444375
 40
22.22499999444375
 40
22.57777777213333
 40
22.57777777213333
 40
22.57777777213333
 40
22.93055554982292
 40
22.93055554982292
 40
22.93055554982292
 40
22.93055554982292
 10
1124.780612240506
 20
50.73282062533763
 10
1124.780612240506
 20
50.73282062533763
 10
1125.009366580727
 20
49.77784015682638
 10
1125.009366580727
 20
49.77784015682638
 10
1125.135457075487
 20
49.28243542604745
 10
1125.280840104964
 20
48.82217066921807
 10
1125.524063846223
 20
48.36914061290771
 10
1127.067466623615
 20
46.30380586950044
 10
1131.007277820547
 20
46.54048392933711
 10
1133.026103774903
 20
47.166457779007
 10
1134.144381769415
 20
47.51406791346871
 10
1135.218562541716
 20
48.08836533085986
 10
1136.225908461603
 20
48.68712292619627
 10
1138.793882636309
 20
46.99902613842386
 10
1142.037095526123
 20
46.47674966285998
 10
1145.28650958781
 20
46.46400280956455
 10
1148.607581635591
 20
46.45160046581766
 10
1151.998244612174
 20
46.97422145093006
 10
1154.785326859741
 20
47.38005369909249
 10
1157.74948701525
 20
47.57022296987828
 10
1160.112822518132
 20
48.96789820824414
 10
1163.23132295138
 20
48.29713811726599
 10
1163.903805590101
 20
48.52175834290428
 10
1164.433661275732
 20
48.86488985323517
 10
1164.384051900744
 20
49.70101452750531
 10
1164.082261536237
 20
50.44102103773697
 10
1163.664026944327
 20
50.95812987007297
 10
1162.792417786559
 20
51.02737628932649
 10
1161.322051033454
 20
50.39485675823462
 10
1159.662204028661
 20
50.58226995263221
 10
1158.127069480434
 20
50.20537650654588
 10
1154.22515433384
 20
49.29587129843992
 10
1150.071058197725
 20
48.93895940616804
 10
1145.655823823829
 20
48.6998697794917
 10
1142.91835095125
 20
48.72295191924287
 10
1139.458097045865
 20
48.76532659371145
 10
1137.549514147036
 20
51.07250704018326
 10
1137.338674303339
 20
51.76772730910668
 10
1137.909182115696
 20
52.69066838960511
 10
1137.68180581367
 20
53.67906628432329
 10
1137.325582940495
 20
54.36877440047031
 10
1136.741983765294
 20
54.82524955226591
 10
1135.893801256825
 20
54.60131834572467
 10
1134.730737021005
 20
53.76105955687224
 10
1134.746584460237
 20
52.37440862405918
 10
1134.850626343891
 20
51.11384818600627
 10
1133.17630993806
 20
48.94998371172084
 10
1129.32262612826
 20
48.04667967548833
 10
1127.672425390825
 20
49.724441176805
 10
1127.586298003694
 20
50.02106389808501
 10
1127.420933420402
 20
50.60328503509223
 10
1127.589054080082
 20
51.03151040390879
 10
1127.604212500217
 20
51.08318683618754
 10
1127.620059939449
 20
51.13934189259711
 10
1127.627639149517
 20
51.20307615907424
 10
1127.713766536648
 20
51.85316567714088
 10
1127.500170616562
 20
52.3403021787552
 10
1126.905547135808
 20
52.55148653200102
 10
1125.774866797549
 20
52.96662053797363
 10
1125.841701649963
 20
53.47408310295093
 10
1125.041061459191
 20
54.18067218697567
 10
1124.217683638216
 20
54.93893770327916
 10
1123.258569055123
 20
54.57375758184268
 10
1122.686683204571
 20
53.81411402734508
 10
1122.546123308773
 20
51.78012965285358
 10
1121.109518491424
 20
50.11304794754118
 10
1119.529597701888
 20
49.01785209278026
 10
1118.52018472471
 20
48.66886392012445
 10
1117.255145662527
 20
48.78427461888032
 10
1116.429011765164
 20
49.34479165433047
 10
1116.154782164538
 20
49.53427190601921
 10
1116.058319490951
 20
49.7437337115224
 10
1116.052807338174
 20
49.89152830783962
 10
1117.370211851734
 20
50.2622205820525
 10
1118.551190584078
 20
51.15794540821746
 10
1119.225740280089
 20
52.3885335155487
 10
1120.02431341357
 20
54.5313829073741
 10
1118.475398483402
 20
56.81858180003147
 10
1116.094837503094
 20
56.48647459525338
 10
1113.899622659893
 20
56.1791720779691
 10
1112.817173658428
 20
54.62956812870372
 10
1112.921215542082
 20
51.95927461808657
 10
1111.714054084051
 20
52.00957301217122
 10
1110.632294101682
 20
52.41127114575135
 10
1109.510571011685
 20
52.86257865431908
 10
1108.548700352203
 20
53.25118542505526
 10
1108.376445577941
 20
54.15414495173924
 10
1106.975669753638
 20
53.89266220440878
 10
1105.873928217455
 20
52.72753091129729
 10
1106.646318625248
 20
51.96203069447477
 10
1107.368410638956
 20
51.04184569036454
 10
1108.091880690859
 20
50.12407225309398
 10
1108.058807774201
 20
48.74741209718815
 10
1106.912969015807
 20
48.09697806957298
 10
1105.270347488439
 20
47.70768227973975
 10
1103.896443408922
 20
49.14566513528303
 10
1102.897365718199
 20
50.21157767841933
 10
1102.910457081043
 20
50.84719779544793
 10
1102.929060596664
 20
52.08088648871589
 10
1102.765763070663
 20
52.62452255628832
 10
1102.440546056855
 20
53.71558429646694
 10
1101.735679520573
 20
54.65230575890637
 10
1100.441701656313
 20
54.21994627550752
 10
1099.633482255474
 20
53.14507648410957
 10
1099.942851830049
 20
51.8576443012717
 10
1100.385891109452
 20
50.76107040831668
 10
1100.024156083501
 20
49.63796928012523
 10
1099.48947726419
 20
48.54277342536431
 10
1098.44079019848
 20
47.98604599494794
 10
1097.221915415799
 20
47.69562444554138
 10
1095.099736596885
 20
47.98707952359351
 10
1094.221926267243
 20
50.16300183207731
 10
1094.272224661328
 20
50.45204534328977
 10
1094.405894366156
 20
51.2743896356189
 10
1094.40727240435
 20
52.11258136718019
 10
1094.408650442544
 20
52.63003470906472
 10
1094.36041910575
 20
53.18986272541782
 10
1094.193676484264
 20
53.64633787721342
 10
1093.647973359401
 20
55.12945148361347
 10
1091.423819714123
 20
55.11394855392985
 10
1091.425197752317
 20
52.56319985665087
 10
1091.425197752317
 20
51.95307344621312
 10
1091.516148273128
 20
51.34122448803275
 10
1091.658775226217
 20
50.75004610276388
 10
1090.774074705605
 20
48.93275823429459
 10
1088.952997232102
 20
48.56792262240663
 10
1087.674177787977
 20
48.81252440185937
 10
1085.796600748516
 20
49.77060545630735
 10
1085.190263943112
 20
51.81320256951198
 10
1084.924991590748
 20
53.91608885370848
 10
1086.268578829995
 20
55.76817218657879
 10
1087.401326225546
 20
57.39081216013147
 10
1088.573347709628
 20
59.64493813613043
 10
1089.918312987069
 20
62.14366589158215
 10
1090.439211424439
 20
63.16548121250725
 10
1090.543942327191
 20
66.24574108586913
 10
1090.222859427965
 20
70.04085827242035
 10
1085.554755045452
 20
68.95703123276074
 10
1084.559122450215
 20
66.94578448847189
 10
1082.181317546295
 20
63.22060274027124
 10
1081.77135118355
 20
58.21418998110618
 10
1082.190274794557
 20
53.9770670437974
 10
1081.723808865854
 20
53.10063475234984
 10
1081.020320367766
 20
52.42746309453202
 10
1080.327167156134
 20
51.73430988289976
 10
1079.687757434071
 20
51.18378362435683
 10
1079.164102920313
 20
51.03495549939404
 10
1078.790654569712
 20
50.18057181905208
 10
1078.976689725916
 20
49.83571776097858
 10
1079.031122234583
 20
49.7809407427631
 10
1079.472783475792
 20
49.51463486175329
 10
1080.832907173368
 20
49.09743379848953
 10
1081.641815593305
 20
49.92632377224064
 10
1082.508601617394
 20
50.7572808032829
 10
1082.508601617394
 20
50.7572808032829
 10
1082.886184082577
 20
51.10868054277839
 10
1082.886184082577
 20
51.10868054277839
 10
1083.782597927839
 20
49.2321370319628
 10
1085.151678873677
 20
47.07860784413313
 10
1087.357918022431
 20
46.46503633821013
 10
1088.636737466556
 20
46.25040688947907
 10
1090.185652396724
 20
46.25867511864367
 10
1091.343893498866
 20
46.98214517054613
 10
1091.343893498866
 20
46.98214517054613
 10
1093.049904783161
 20
48.07768553485558
 10
1093.049904783161
 20
48.07768553485558
 10
1094.290828176948
 20
46.61420897272145
 10
1095.901754825851
 20
45.43805337405716
 10
1098.028067759347
 20
45.63821342175017
 10
1099.430221621844
 20
45.69884710229057
 10
1100.539542368094
 20
46.6975802834645
 10
1101.435267194259
 20
47.66771917211085
 10
1101.435267194259
 20
47.66771917211085
 10
1101.949964459756
 20
48.24270560859905
 10
1101.949964459756
 20
48.24270560859905
 10
1103.330069711147
 20
46.79128688066329
 10
1104.937551264564
 20
45.43839788360568
 10
1107.342916932366
 20
45.88384872984849
 10
1108.817417800053
 20
46.0743625101828
 10
1109.602210551593
 20
46.88843857334734
 10
1110.178230516726
 20
48.1786268325734
 10
1110.449704040964
 20
48.81011283501969
 10
1110.3711558639
 20
49.49878742252114
 10
1110.302942973292
 20
50.15783418884944
 10
1111.3054657595
 20
49.89945202745569
 10
1112.345195576949
 20
49.68551159782168
 10
1113.380791279815
 20
49.64623750928983
 10
1113.734947095698
 20
48.73053112931043
 10
1114.361265454917
 20
47.6670301530138
 10
1115.284551044964
 20
47.24156086058544
 10
1117.283395445506
 20
46.32068683737816
 10
1117.396394577422
 20
46.47227103872915
 10
1119.276038674174
 20
46.57183429825287
 10
1121.675203170102
 20
47.01728514449568
 10
1123.437714020356
 20
48.89107257892307
 10
1124.780612240506
 20
50.73282062533763
 72
     1
 10
1124.780612240506
 20
50.73282062533763
 11
1124.780612240506
 21
50.73282062533763
 97
        0
 92
        1
 93
        2
 72
     4
 94
        3
 73
     0
 74
     0
 95
       53
 96
       49
 40
0.0
 40
0.0
 40
0.0
 40
0.0
 40
0.3527777776895833
 40
0.3527777776895833
 40
0.3527777776895833
 40
0.7055555553791667
 40
0.7055555553791667
 40
0.7055555553791667
 40
1.05833333306875
 40
1.05833333306875
 40
1.05833333306875
 40
1.411111110758333
 40
1.411111110758333
 40
1.411111110758333
 40
1.763888888447917
 40
1.763888888447917
 40
1.763888888447917
 40
2.1166666661375
 40
2.1166666661375
 40
2.1166666661375
 40
2.469444443827083
 40
2.469444443827083
 40
2.469444443827083
 40
2.822222221516667
 40
2.822222221516667
 40
2.822222221516667
 40
3.17499999920625
 40
3.17499999920625
 40
3.17499999920625
 40
3.527777776895833
 40
3.527777776895833
 40
3.527777776895833
 40
3.880555554585417
 40
3.880555554585417
 40
3.880555554585417
 40
4.233333332275
 40
4.233333332275
 40
4.233333332275
 40
4.586111109964584
 40
4.586111109964584
 40
4.586111109964584
 40
4.938888887654167
 40
4.938888887654167
 40
4.938888887654167
 40
5.29166666534375
 40
5.29166666534375
 40
5.29166666534375
 40
5.644444443033334
 40
5.644444443033334
 40
5.644444443033334
 40
5.644444443033334
 10
1066.208476838483
 20
64.0984130699129
 10
1066.208476838483
 20
64.0984130699129
 10
1065.699291725763
 20
64.56935762274655
 10
1065.699291725763
 20
64.56935762274655
 10
1065.699291725763
 20
64.56935762274655
 10
1066.189873322862
 20
64.80638019213174
 10
1066.189873322862
 20
64.80638019213174
 10
1066.960885692461
 20
65.05373804797269
 10
1067.79735487628
 20
65.11540525715866
 10
1068.189406742501
 20
64.22036945009074
 10
1068.285180396991
 20
63.43523218900231
 10
1067.957896325893
 20
62.96118705023193
 10
1067.401857914573
 20
62.47198349132645
 10
1066.205031742997
 20
62.36311847399256
 10
1065.403013514031
 20
61.26034340916409
 10
1064.6630070038
 20
60.43386500225265
 10
1063.809312342555
 20
58.42158472931822
 10
1064.512111821546
 20
56.00381671776988
 10
1064.930346413455
 20
53.9770670437974
 10
1064.930346413455
 20
53.9770670437974
 10
1065.18597249846
 20
53.72833114976236
 10
1065.18597249846
 20
53.72833114976236
 10
1065.646926274387
 20
53.27185599796676
 10
1066.021752663182
 20
52.78609753454653
 10
1065.988679746524
 20
52.08915471788049
 10
1065.549774581703
 20
50.90920951418242
 10
1063.20779867083
 20
50.3352566063398
 10
1062.958373757698
 20
52.21903481767441
 10
1062.534627013012
 20
52.96662053797363
 10
1062.364439296041
 20
53.50922307690048
 10
1062.255574278707
 20
54.06284992138012
 10
1062.255574278707
 20
54.06284992138012
 10
1062.179093158934
 20
54.4996880289098
 10
1062.179093158934
 20
54.4996880289098
 10
1062.035088167651
 20
53.40828177918265
 10
1062.210099018302
 20
52.13738605467399
 10
1062.39268907902
 20
51.06492783011571
 10
1062.768893506009
 20
49.64485947109574
 10
1063.748678662014
 20
48.56034341233908
 10
1065.152899581802
 20
47.99018010953024
 10
1068.371307784123
 20
47.2270914595474
 10
1071.026098365056
 20
49.42575139823384
 10
1072.862334258694
 20
51.80458983079885
 10
1075.754147409013
 20
55.93422578896784
 10
1078.322121583718
 20
61.11185979374982
 10
1075.985657825622
 20
66.1144829478811
 10
1073.197197539861
 20
69.60367565534214
 10
1067.727074928381
 20
67.98310273908062
 10
1066.208476838483
 20
64.0984130699129
 72
     1
 10
1066.208476838483
 20
64.0984130699129
 11
1066.208476838483
 21
64.0984130699129
 97
        0
 92
        1
 93
        2
 72
     4
 94
        3
 73
     0
 74
     0
 95
       23
 96
       19
 40
0.0
 40
0.0
 40
0.0
 40
0.0
 40
0.3527777776895833
 40
0.3527777776895833
 40
0.3527777776895833
 40
0.7055555553791667
 40
0.7055555553791667
 40
0.7055555553791667
 40
1.05833333306875
 40
1.05833333306875
 40
1.05833333306875
 40
1.411111110758333
 40
1.411111110758333
 40
1.411111110758333
 40
1.763888888447917
 40
1.763888888447917
 40
1.763888888447917
 40
2.1166666661375
 40
2.1166666661375
 40
2.1166666661375
 40
2.1166666661375
 10
1074.868068850207
 20
50.09788952740609
 10
1072.603263078203
 20
47.02245278772356
 10
1068.913565813501
 20
44.97296548354843
 10
1064.964797368307
 20
45.52900389486775
 10
1062.181160216226
 20
46.27038844329351
 10
1060.37937527744
 20
48.97478839921464
 10
1059.919110520611
 20
51.63440211382751
 10
1059.358248975612
 20
55.11119247754165
 10
1060.300827100376
 20
58.27757973803477
 10
1062.137062994014
 20
60.89481877817908
 10
1062.687589252557
 20
64.69648164615226
 10
1064.8497311791
 20
68.34724933187152
 10
1068.622799754546
 20
70.02535534273672
 10
1070.975110951874
 20
70.88352862811246
 10
1076.241972929724
 20
71.26145560284436
 10
1078.026532391084
 20
67.40398218801012
 10
1081.266300185413
 20
61.42915308794132
 10
1078.017575142822
 20
54.86900226492858
 10
1074.868068850207
 20
50.09788952740609
 72
     1
 10
1074.868068850207
 20
50.09788952740609
 11
1074.868068850207
 21
50.09788952740609
 97
        0
 92
        1
 93
        2
 72
     4
 94
        3
 73
     0
 74
     0
 95
       17
 96
       13
 40
0.0
 40
0.0
 40
0.0
 40
0.0
 40
0.3527777776895833
 40
0.3527777776895833
 40
0.3527777776895833
 40
0.7055555553791667
 40
0.7055555553791667
 40
0.7055555553791667
 40
1.05833333306875
 40
1.05833333306875
 40
1.05833333306875
 40
1.411111110758333
 40
1.411111110758333
 40
1.411111110758333
 40
1.411111110758333
 10
1137.450984416158
 20
57.13794215151413
 10
1137.603946655703
 20
57.60303004202286
 10
1137.554337280716
 20
58.22211370072225
 10
1137.275973565507
 20
58.65033906953881
 10
1136.673770874686
 20
59.40826007629377
 10
1135.513462715254
 20
59.94672850063832
 10
1134.793437758836
 20
58.95350747224079
 10
1134.431013713788
 20
58.06708440388601
 10
1134.702487238026
 20
57.18479545011353
 10
1135.414243965279
 20
56.57639158741841
 10
1136.170786933839
 20
56.39517956489426
 10
1137.032749824249
 20
56.21396754237012
 10
1137.450984416158
 20
57.13794215151413
 72
     1
 10
1137.450984416158
 20
57.13794215151413
 11
1137.450984416158
 21
57.13794215151413
 97
        0
 92
        1
 93
        2
 72
     4
 94
        3
 73
     0
 74
     0
 95
       17
 96
       13
 40
0.0
 40
0.0
 40
0.0
 40
0.0
 40
0.3527777776895833
 40
0.3527777776895833
 40
0.3527777776895833
 40
0.7055555553791667
 40
0.7055555553791667
 40
0.7055555553791667
 40
1.05833333306875
 40
1.05833333306875
 40
1.05833333306875
 40
1.411111110758333
 40
1.411111110758333
 40
1.411111110758333
 40
1.411111110758333
 10
1094.01246446174
 20
58.55766600098558
 10
1093.623168671907
 20
57.99956053237511
 10
1092.661987031522
 20
57.99818249418102
 10
1092.165204262549
 20
58.20109861826223
 10
1091.446557344326
 20
58.49427624405699
 10
1090.763739419149
 20
59.44236652159775
 10
1091.290150009296
 20
60.35910643022272
 10
1091.877883299079
 20
61.38229978934193
 10
1093.097447100858
 20
61.10117999774554
 10
1093.727210555561
 20
60.58820527999184
 10
1094.122018498171
 20
60.26712238076656
 10
1094.538186032789
 20
59.3093858358671
 10
1094.01246446174
 20
58.55766600098558
 72
     1
 10
1094.01246446174
 20
58.55766600098558
 11
1094.01246446174
 21
58.55766600098558
 97
        0
 75
     2
 76
     1
 98
        0
  0
SPLINE
  5
5DF
330
5D1
100
AcDbEntity
  8
Layer 1
370
     0
100
AcDbSpline
210
0.0
220
0.0
230
1.0
 70
    11
 71
     3
 72
    20
 73
    16
 74
     0
 42
0.0000000001
 43
0.0000000001
 40
0.0
 40
0.0
 40
0.0
 40
0.0
 40
1.0
 40
1.0
 40
1.0
 40
2.0
 40
2.0
 40
2.0
 40
3.0
 40
3.0
 40
3.0
 40
4.0
 40
4.0
 40
4.0
 40
5.0
 40
5.0
 40
5.0
 40
5.0
 10
1161.815388706942
 20
54.10488008630017
 30
0.0
 10
1161.815388706942
 20
54.10488008630017
 30
0.0
 10
1162.110977899576
 20
54.10488008630017
 30
0.0
 10
1162.110977899576
 20
54.10488008630017
 30
0.0
 10
1162.269452291898
 20
54.10488008630017
 30
0.0
 10
1162.425170607831
 20
54.05527071131257
 30
0.0
 10
1162.425170607831
 20
53.8819824084045
 30
0.0
 10
1162.425170607831
 20
53.68285588935706
 30
0.0
 10
1162.301836189459
 20
53.64323729127669
 30
0.0
 10
1162.110977899576
 20
53.64323729127669
 30
0.0
 10
1162.110977899576
 20
53.64323729127669
 30
0.0
 10
1161.815388706942
 20
53.64323729127669
 30
0.0
 10
1161.815388706942
 20
53.64323729127669
 30
0.0
 10
1161.815388706942
 20
53.64323729127669
 30
0.0
 10
1161.815388706942
 20
54.10488008630017
 30
0.0
 10
1161.815388706942
 20
54.10488008630017
 30
0.0
  0
SPLINE
  5
5E0
330
5D1
100
AcDbEntity
  8
Layer 1
370
     0
100
AcDbSpline
210
0.0
220
0.0
230
1.0
 70
    11
 71
     3
 72
    35
 73
    31
 74
     0
 42
0.0000000001
 43
0.0000000001
 40
0.0
 40
0.0
 40
0.0
 40
0.0
 40
1.0
 40
1.0
 40
1.0
 40
2.0
 40
2.0
 40
2.0
 40
3.0
 40
3.0
 40
3.0
 40
4.0
 40
4.0
 40
4.0
 40
5.0
 40
5.0
 40
5.0
 40
6.0
 40
6.0
 40
6.0
 40
7.0
 40
7.0
 40
7.0
 40
8.0
 40
8.0
 40
8.0
 40
9.0
 40
9.0
 40
9.0
 40
10.0
 40
10.0
 40
10.0
 40
10.0
 10
1161.565274774713
 20
52.77335068125111
 30
0.0
 10
1161.565274774713
 20
52.77335068125111
 30
0.0
 10
1161.815388706942
 20
52.77335068125111
 30
0.0
 10
1161.815388706942
 20
52.77335068125111
 30
0.0
 10
1161.815388706942
 20
52.77335068125111
 30
0.0
 10
1161.815388706942
 20
53.44824488681155
 30
0.0
 10
1161.815388706942
 20
53.44824488681155
 30
0.0
 10
1161.815388706942
 20
53.44824488681155
 30
0.0
 10
1162.023472474251
 20
53.44824488681155
 30
0.0
 10
1162.023472474251
 20
53.44824488681155
 30
0.0
 10
1162.023472474251
 20
53.44824488681155
 30
0.0
 10
1162.449975295325
 20
52.77335068125111
 30
0.0
 10
1162.449975295325
 20
52.77335068125111
 30
0.0
 10
1162.449975295325
 20
52.77335068125111
 30
0.0
 10
1162.713869609495
 20
52.77335068125111
 30
0.0
 10
1162.713869609495
 20
52.77335068125111
 30
0.0
 10
1162.713869609495
 20
52.77335068125111
 30
0.0
 10
1162.280476597451
 20
53.44824488681155
 30
0.0
 10
1162.280476597451
 20
53.44824488681155
 30
0.0
 10
1162.51887720503
 20
53.44824488681155
 30
0.0
 10
1162.674595520963
 20
53.62566730430192
 30
0.0
 10
1162.674595520963
 20
53.87061359330318
 30
0.0
 10
1162.674595520963
 20
54.15896808541859
 30
0.0
 10
1162.50027368941
 20
54.29987249076531
 30
0.0
 10
1162.150251988108
 20
54.29987249076531
 30
0.0
 10
1162.150251988108
 20
54.29987249076531
 30
0.0
 10
1161.565274774713
 20
54.29987249076531
 30
0.0
 10
1161.565274774713
 20
54.29987249076531
 30
0.0
 10
1161.565274774713
 20
54.29987249076531
 30
0.0
 10
1161.565274774713
 20
52.77335068125111
 30
0.0
 10
1161.565274774713
 20
52.77335068125111
 30
0.0
  0
SPLINE
  5
5E1
330
5D1
100
AcDbEntity
  8
Layer 1
370
     0
100
AcDbSpline
210
0.0
220
0.0
230
1.0
 70
    11
 71
     3
 72
    17
 73
    13
 74
     0
 42
0.0000000001
 43
0.0000000001
 40
0.0
 40
0.0
 40
0.0
 40
0.0
 40
1.0
 40
1.0
 40
1.0
 40
2.0
 40
2.0
 40
2.0
 40
3.0
 40
3.0
 40
3.0
 40
4.0
 40
4.0
 40
4.0
 40
4.0
 10
1161.009925382491
 20
53.53506129303985
 30
0.0
 10
1161.009925382491
 20
54.15896808541859
 30
0.0
 10
1161.461921910155
 20
54.64334851064472
 30
0.0
 10
1162.067569696462
 20
54.64334851064472
 30
0.0
 10
1162.666327291799
 20
54.64334851064472
 30
0.0
 10
1163.116945781269
 20
54.15896808541859
 30
0.0
 10
1163.116945781269
 20
53.53506129303985
 30
0.0
 10
1163.116945781269
 20
52.91115450066111
 30
0.0
 10
1162.666327291799
 20
52.42746309453202
 30
0.0
 10
1162.067569696462
 20
52.42746309453202
 30
0.0
 10
1161.461921910155
 20
52.42746309453202
 30
0.0
 10
1161.009925382491
 20
52.91115450066111
 30
0.0
 10
1161.009925382491
 20
53.53506129303985
 30
0.0
  0
SPLINE
  5
5E2
330
5D1
100
AcDbEntity
  8
Layer 1
370
     0
100
AcDbSpline
210
0.0
220
0.0
230
1.0
 70
    11
 71
     3
 72
    17
 73
    13
 74
     0
 42
0.0000000001
 43
0.0000000001
 40
0.0
 40
0.0
 40
0.0
 40
0.0
 40
1.0
 40
1.0
 40
1.0
 40
2.0
 40
2.0
 40
2.0
 40
3.0
 40
3.0
 40
3.0
 40
4.0
 40
4.0
 40
4.0
 40
4.0
 10
1160.761189488456
 20
53.53506129303985
 30
0.0
 10
1160.761189488456
 20
52.81744790346231
 30
0.0
 10
1161.345477682754
 20
52.23178167096984
 30
0.0
 10
1162.064124600977
 20
52.23178167096984
 30
0.0
 10
1162.782082500103
 20
52.23178167096984
 30
0.0
 10
1163.366370694401
 20
52.81744790346231
 30
0.0
 10
1163.366370694401
 20
53.53506129303985
 30
0.0
 10
1163.366370694401
 20
54.25336370171444
 30
0.0
 10
1162.782082500103
 20
54.83834091510986
 30
0.0
 10
1162.064124600977
 20
54.83834091510986
 30
0.0
 10
1161.345477682754
 20
54.83834091510986
 30
0.0
 10
1160.761189488456
 20
54.25336370171444
 30
0.0
 10
1160.761189488456
 20
53.53506129303985
 30
0.0
  0
HATCH
  5
5E3
330
5D1
100
AcDbEntity
  8
Layer 1
 62
   152
100
AcDbHatch
 10
0.0
 20
0.0
 30
0.0
210
0.0
220
0.0
230
1.0
  2
SOLID
 70
     1
 71
     0
 91
        4
 92
        1
 93
        1
 72
     4
 94
        3
 73
     0
 74
     1
 95
       20
 96
       16
 40
0.0
 40
0.0
 40
0.0
 40
0.0
 40
1.0
 40
1.0
 40
1.0
 40
2.0
 40
2.0
 40
2.0
 40
3.0
 40
3.0
 40
3.0
 40
4.0
 40
4.0
 40
4.0
 40
5.0
 40
5.0
 40
5.0
 40
5.0
 10
1161.815388706942
 20
54.10488008630017
 10
1161.815388706942
 20
54.10488008630017
 10
1162.110977899576
 20
54.10488008630017
 10
1162.110977899576
 20
54.10488008630017
 10
1162.269452291898
 20
54.10488008630017
 10
1162.425170607831
 20
54.05527071131257
 10
1162.425170607831
 20
53.8819824084045
 10
1162.425170607831
 20
53.68285588935706
 10
1162.301836189459
 20
53.64323729127669
 10
1162.110977899576
 20
53.64323729127669
 10
1162.110977899576
 20
53.64323729127669
 10
1161.815388706942
 20
53.64323729127669
 10
1161.815388706942
 20
53.64323729127669
 10
1161.815388706942
 20
53.64323729127669
 10
1161.815388706942
 20
54.10488008630017
 10
1161.815388706942
 20
54.10488008630017
 97
        0
 92
        1
 93
        1
 72
     4
 94
        3
 73
     0
 74
     1
 95
       35
 96
       31
 40
0.0
 40
0.0
 40
0.0
 40
0.0
 40
1.0
 40
1.0
 40
1.0
 40
2.0
 40
2.0
 40
2.0
 40
3.0
 40
3.0
 40
3.0
 40
4.0
 40
4.0
 40
4.0
 40
5.0
 40
5.0
 40
5.0
 40
6.0
 40
6.0
 40
6.0
 40
7.0
 40
7.0
 40
7.0
 40
8.0
 40
8.0
 40
8.0
 40
9.0
 40
9.0
 40
9.0
 40
10.0
 40
10.0
 40
10.0
 40
10.0
 10
1161.565274774713
 20
52.77335068125111
 10
1161.565274774713
 20
52.77335068125111
 10
1161.815388706942
 20
52.77335068125111
 10
1161.815388706942
 20
52.77335068125111
 10
1161.815388706942
 20
52.77335068125111
 10
1161.815388706942
 20
53.44824488681155
 10
1161.815388706942
 20
53.44824488681155
 10
1161.815388706942
 20
53.44824488681155
 10
1162.023472474251
 20
53.44824488681155
 10
1162.023472474251
 20
53.44824488681155
 10
1162.023472474251
 20
53.44824488681155
 10
1162.449975295325
 20
52.77335068125111
 10
1162.449975295325
 20
52.77335068125111
 10
1162.449975295325
 20
52.77335068125111
 10
1162.713869609495
 20
52.77335068125111
 10
1162.713869609495
 20
52.77335068125111
 10
1162.713869609495
 20
52.77335068125111
 10
1162.280476597451
 20
53.44824488681155
 10
1162.280476597451
 20
53.44824488681155
 10
1162.51887720503
 20
53.44824488681155
 10
1162.674595520963
 20
53.62566730430192
 10
1162.674595520963
 20
53.87061359330318
 10
1162.674595520963
 20
54.15896808541859
 10
1162.50027368941
 20
54.29987249076531
 10
1162.150251988108
 20
54.29987249076531
 10
1162.150251988108
 20
54.29987249076531
 10
1161.565274774713
 20
54.29987249076531
 10
1161.565274774713
 20
54.29987249076531
 10
1161.565274774713
 20
54.29987249076531
 10
1161.565274774713
 20
52.77335068125111
 10
1161.565274774713
 20
52.77335068125111
 97
        0
 92
        1
 93
        2
 72
     4
 94
        3
 73
     0
 74
     0
 95
       17
 96
       13
 40
0.0
 40
0.0
 40
0.0
 40
0.0
 40
0.3527777776895833
 40
0.3527777776895833
 40
0.3527777776895833
 40
0.7055555553791667
 40
0.7055555553791667
 40
0.7055555553791667
 40
1.05833333306875
 40
1.05833333306875
 40
1.05833333306875
 40
1.411111110758333
 40
1.411111110758333
 40
1.411111110758333
 40
1.411111110758333
 10
1161.009925382491
 20
53.53506129303985
 10
1161.009925382491
 20
54.15896808541859
 10
1161.461921910155
 20
54.64334851064472
 10
1162.067569696462
 20
54.64334851064472
 10
1162.666327291799
 20
54.64334851064472
 10
1163.116945781269
 20
54.15896808541859
 10
1163.116945781269
 20
53.53506129303985
 10
1163.116945781269
 20
52.91115450066111
 10
1162.666327291799
 20
52.42746309453202
 10
1162.067569696462
 20
52.42746309453202
 10
1161.461921910155
 20
52.42746309453202
 10
1161.009925382491
 20
52.91115450066111
 10
1161.009925382491
 20
53.53506129303985
 72
     1
 10
1161.009925382491
 20
53.53506129303985
 11
1161.009925382491
 21
53.53506129303985
 97
        0
 92
        1
 93
        2
 72
     4
 94
        3
 73
     0
 74
     0
 95
       17
 96
       13
 40
0.0
 40
0.0
 40
0.0
 40
0.0
 40
0.3527777776895833
 40
0.3527777776895833
 40
0.3527777776895833
 40
0.7055555553791667
 40
0.7055555553791667
 40
0.7055555553791667
 40
1.05833333306875
 40
1.05833333306875
 40
1.05833333306875
 40
1.411111110758333
 40
1.411111110758333
 40
1.411111110758333
 40
1.411111110758333
 10
1160.761189488456
 20
53.53506129303985
 10
1160.761189488456
 20
52.81744790346231
 10
1161.345477682754
 20
52.23178167096984
 10
1162.064124600977
 20
52.23178167096984
 10
1162.782082500103
 20
52.23178167096984
 10
1163.366370694401
 20
52.81744790346231
 10
1163.366370694401
 20
53.53506129303985
 10
1163.366370694401
 20
54.25336370171444
 10
1162.782082500103
 20
54.83834091510986
 10
1162.064124600977
 20
54.83834091510986
 10
1161.345477682754
 20
54.83834091510986
 10
1160.761189488456
 20
54.25336370171444
 10
1160.761189488456
 20
53.53506129303985
 72
     1
 10
1160.761189488456
 20
53.53506129303985
 11
1160.761189488456
 21
53.53506129303985
 97
        0
 75
     2
 76
     1
 98
        0
  0
ENDBLK
  5
5D4
330
5D1
100
AcDbEntity
  8
0
100
AcDbBlockEnd
  0
ENDSEC
  0
SECTION
  2
ENTITIES
  0
INSERT
  5
3D
330
1F
100
AcDbEntity
  8
Layer 1
100
AcDbBlockReference
  2
block 2
 10
0.0
 20
0.0
 30
0.0
  0
MTEXT
  5
5D0
330
1F
100
AcDbEntity
  8
Layer 1
 62
     7
100
AcDbMText
 10
1019.326239437009
 20
28.137128356681
 30
0.0
 40
9.595555553156668
 41
0.0
 71
     7
 72
     1
  1
\fFrutiger LT Std 55 Roman|b0|i0|c0|p34;\W1;CAD Drawing: PR1131
 73
     1
 44
1.0
  0
INSERT
  5
5D2
330
1F
100
AcDbEntity
  8
Layer 1
100
AcDbBlockReference
  2
block 3
 10
0.0
 20
0.0
 30
0.0
  0
ENDSEC
  0
SECTION
  2
OBJECTS
  0
DICTIONARY
  5
C
330
0
100
AcDbDictionary
281
     1
  3
ACAD_GROUP
350
D
  3
ACAD_LAYOUT
350
1A
  3
ACAD_MLINESTYLE
350
17
  3
ACAD_PLOTSETTINGS
350
19
  3
ACAD_PLOTSTYLENAME
350
E
  3
ACAD_TABLESTYLE
350
5E4
  3
ACAD_VISUALSTYLE
350
2A
  0
DICTIONARY
  5
D
102
{ACAD_REACTORS
330
C
102
}
330
C
100
AcDbDictionary
281
     1
  0
DICTIONARY
  5
1A
102
{ACAD_REACTORS
330
C
102
}
330
C
100
AcDbDictionary
281
     1
  3
Layout1
350
1E
  3
Layout2
350
26
  3
Model
350
22
  0
DICTIONARY
  5
17
102
{ACAD_REACTORS
330
C
102
}
330
C
100
AcDbDictionary
281
     1
  3
Standard
350
18
  0
DICTIONARY
  5
19
102
{ACAD_REACTORS
330
C
102
}
330
C
100
AcDbDictionary
281
     1
  0
ACDBDICTIONARYWDFLT
  5
E
102
{ACAD_REACTORS
330
C
102
}
330
C
100
AcDbDictionary
281
     1
  3
Normal
350
F
100
AcDbDictionaryWithDefault
340
F
  0
DICTIONARY
  5
5E4
102
{ACAD_REACTORS
330
C
102
}
330
C
100
AcDbDictionary
281
     1
  0
DICTIONARY
  5
2A
102
{ACAD_REACTORS
330
C
102
}
330
C
100
AcDbDictionary
281
     1
  3
2dWireframe
350
2F
  3
3D Hidden
350
31
  3
3dWireframe
350
30
  3
Basic
350
32
  3
Brighten
350
36
  3
ColorChange
350
3A
  3
Conceptual
350
34
  3
Dim
350
35
  3
Facepattern
350
39
  3
Flat
350
2B
  3
FlatWithEdges
350
2C
  3
Gouraud
350
2D
  3
GouraudWithEdges
350
2E
  3
Linepattern
350
38
  3
Realistic
350
33
  3
Thicken
350
37
  0
LAYOUT
  5
1E
102
{ACAD_REACTORS
330
1A
102
}
330
1A
100
AcDbPlotSettings
  1

  2
none_device
  4

  6

 40
0.0
 41
0.0
 42
0.0
 43
0.0
 44
0.0
 45
0.0
 46
0.0
 47
0.0
 48
0.0
 49
0.0
140
0.0
141
0.0
142
1.0
143
1.0
 70
   688
 72
     0
 73
     0
 74
     5
  7

 75
    16
147
1.0
148
0.0
149
0.0
100
AcDbLayout
  1
Layout1
 70
     1
 71
     1
 10
0.0
 20
0.0
 11
12.0
 21
9.0
 12
0.0
 22
0.0
 32
0.0
 14
1.000000000000000E+20
 24
1.000000000000000E+20
 34
1.000000000000000E+20
 15
-1.000000000000000E+20
 25
-1.000000000000000E+20
 35
-1.000000000000000E+20
146
0.0
 13
0.0
 23
0.0
 33
0.0
 16
1.0
 26
0.0
 36
0.0
 17
0.0
 27
1.0
 37
0.0
 76
     0
330
1B
  0
LAYOUT
  5
26
102
{ACAD_REACTORS
330
1A
102
}
330
1A
100
AcDbPlotSettings
  1

  2
none_device
  4

  6

 40
0.0
 41
0.0
 42
0.0
 43
0.0
 44
0.0
 45
0.0
 46
0.0
 47
0.0
 48
0.0
 49
0.0
140
0.0
141
0.0
142
1.0
143
1.0
 70
   688
 72
     0
 73
     0
 74
     5
  7

 75
    16
147
1.0
148
0.0
149
0.0
100
AcDbLayout
  1
Layout2
 70
     1
 71
     2
 10
0.0
 20
0.0
 11
0.0
 21
0.0
 12
0.0
 22
0.0
 32
0.0
 14
0.0
 24
0.0
 34
0.0
 15
0.0
 25
0.0
 35
0.0
146
0.0
 13
0.0
 23
0.0
 33
0.0
 16
1.0
 26
0.0
 36
0.0
 17
0.0
 27
1.0
 37
0.0
 76
     0
330
23
  0
LAYOUT
  5
22
102
{ACAD_REACTORS
330
1A
102
}
330
1A
100
AcDbPlotSettings
  1

  2
none_device
  4

  6

 40
0.0
 41
0.0
 42
0.0
 43
0.0
 44
0.0
 45
0.0
 46
0.0
 47
0.0
 48
0.0
 49
0.0
140
0.0
141
0.0
142
1.0
143
1.0
 70
  1712
 72
     0
 73
     0
 74
     0
  7

 75
     0
147
1.0
148
0.0
149
0.0
100
AcDbLayout
  1
Model
 70
     1
 71
     0
 10
0.0
 20
0.0
 11
12.0
 21
9.0
 12
0.0
 22
0.0
 32
0.0
 14
1.000000000000000E+20
 24
1.000000000000000E+20
 34
1.000000000000000E+20
 15
-1.000000000000000E+20
 25
-1.000000000000000E+20
 35
-1.000000000000000E+20
146
0.0
 13
0.0
 23
0.0
 33
0.0
 16
1.0
 26
0.0
 36
0.0
 17
0.0
 27
1.0
 37
0.0
 76
     0
330
1F
331
29
  0
MLINESTYLE
  5
18
102
{ACAD_REACTORS
330
17
102
}
330
17
100
AcDbMlineStyle
  2
Standard
 70
     0
  3

 62
   256
 51
90.0
 52
90.0
 71
     2
 49
0.5
 62
   256
  6
BYLAYER
 49
-0.5
 62
   256
  6
BYLAYER
  0
ACDBPLACEHOLDER
  5
F
102
{ACAD_REACTORS
330
E
102
}
330
E
  0
VISUALSTYLE
  5
2F
102
{ACAD_REACTORS
330
2A
102
}
330
2A
100
AcDbVisualStyle
  2
2dWireframe
 70
     4
 71
     0
 72
     2
 73
     0
 90
        0
 40
-0.6
 41
-30.0
 62
     5
 63
     7
 74
     1
 91
        4
 64
     7
 65
   257
 75
     1
175
     1
 42
1.0
 92
        0
 66
   257
 43
1.0
 76
     1
 77
     6
 78
     2
 67
     7
 79
     5
170
     0
171
     0
290
     0
174
     0
 93
        1
 44
0.0
173
     0
291
     0
 45
0.0
1001
ACAD
1000
AcDbSavedByObjectVersion
1070
     0
  0
VISUALSTYLE
  5
31
102
{ACAD_REACTORS
330
2A
102
}
330
2A
100
AcDbVisualStyle
  2
3D Hidden
 70
     6
 71
     1
 72
     2
 73
     2
 90
        0
 40
-0.6
 41
-30.0
 62
     5
 63
     7
 74
     2
 91
        2
 64
     7
 65
   257
 75
     2
175
     1
 42
40.0
 92
        0
 66
   257
 43
1.0
 76
     1
 77
     6
 78
     2
 67
     7
 79
     3
170
     0
171
     0
290
     0
174
     0
 93
        1
 44
0.0
173
     0
291
     0
 45
0.0
1001
ACAD
1000
AcDbSavedByObjectVersion
1070
     0
  0
VISUALSTYLE
  5
30
102
{ACAD_REACTORS
330
2A
102
}
330
2A
100
AcDbVisualStyle
  2
3dWireframe
 70
     5
 71
     0
 72
     2
 73
     0
 90
        0
 40
-0.6
 41
-30.0
 62
     5
 63
     7
 74
     1
 91
        4
 64
     7
 65
   257
 75
     1
175
     1
 42
1.0
 92
        0
 66
   257
 43
1.0
 76
     1
 77
     6
 78
     2
 67
     7
 79
     5
170
     0
171
     0
290
     0
174
     0
 93
        1
 44
0.0
173
     0
291
     0
 45
0.0
1001
ACAD
1000
AcDbSavedByObjectVersion
1070
     0
  0
VISUALSTYLE
  5
32
102
{ACAD_REACTORS
330
2A
102
}
330
2A
100
AcDbVisualStyle
  2
Basic
 70
     7
 71
     1
 72
     0
 73
     1
 90
        0
 40
-0.6
 41
-30.0
 62
     5
 63
     7
 74
     0
 91
        4
 64
     7
 65
   257
 75
     1
175
     1
 42
1.0
 92
        8
 66
     7
 43
1.0
 76
     1
 77
     6
 78
     2
 67
     7
 79
     5
170
     0
171
     0
290
     0
174
     0
 93
        1
 44
0.0
173
     0
291
     1
 45
0.0
1001
ACAD
1000
AcDbSavedByObjectVersion
1070
     0
  0
VISUALSTYLE
  5
36
102
{ACAD_REACTORS
330
2A
102
}
330
2A
100
AcDbVisualStyle
  2
Brighten
 70
    12
 71
     2
 72
     2
 73
     0
 90
        0
 40
-0.6
 41
-30.0
 62
     5
 63
     7
 74
     1
 91
        4
 64
     7
 65
   257
 75
     1
175
     1
 42
1.0
 92
        8
 66
     7
 43
1.0
 76
     1
 77
     6
 78
     2
 67
     7
 79
     5
170
     0
171
     0
290
     0
174
     0
 93
        1
 44
50.0
173
     0
291
     1
 45
0.0
1001
ACAD
1000
AcDbSavedByObjectVersion
1070
     0
  0
VISUALSTYLE
  5
3A
102
{ACAD_REACTORS
330
2A
102
}
330
2A
100
AcDbVisualStyle
  2
ColorChange
 70
    16
 71
     2
 72
     2
 73
     3
 90
        0
 40
-0.6
 41
-30.0
 62
     5
 63
     8
 74
     1
 91
        4
 64
     7
 65
   257
 75
     1
175
     1
 42
1.0
 92
        8
 66
     8
 43
1.0
 76
     1
 77
     6
 78
     2
 67
     7
 79
     5
170
     0
171
     0
290
     0
174
     0
 93
        1
 44
0.0
173
     0
291
     1
 45
0.0
1001
ACAD
1000
AcDbSavedByObjectVersion
1070
     0
  0
VISUALSTYLE
  5
34
102
{ACAD_REACTORS
330
2A
102
}
330
2A
100
AcDbVisualStyle
  2
Conceptual
 70
     9
 71
     3
 72
     2
 73
     0
 90
        0
 40
-0.6
 41
-30.0
 62
     5
 63
     7
 74
     2
 91
        2
 64
     7
 65
   257
 75
     1
175
     1
 42
40.0
 92
        8
 66
     7
 43
1.0
 76
     1
 77
     6
 78
     2
 67
     7
 79
     3
170
     0
171
     0
290
     0
174
     0
 93
        1
 44
0.0
173
     0
291
     0
 45
0.0
1001
ACAD
1000
AcDbSavedByObjectVersion
1070
     0
  0
VISUALSTYLE
  5
35
102
{ACAD_REACTORS
330
2A
102
}
330
2A
100
AcDbVisualStyle
  2
Dim
 70
    11
 71
     2
 72
     2
 73
     0
 90
        0
 40
-0.6
 41
-30.0
 62
     5
 63
     7
 74
     1
 91
        4
 64
     7
 65
   257
 75
     1
175
     1
 42
1.0
 92
        8
 66
     7
 43
1.0
 76
     1
 77
     6
 78
     2
 67
     7
 79
     5
170
     0
171
     0
290
     0
174
     0
 93
        1
 44
-50.0
173
     0
291
     1
 45
0.0
1001
ACAD
1000
AcDbSavedByObjectVersion
1070
     0
  0
VISUALSTYLE
  5
39
102
{ACAD_REACTORS
330
2A
102
}
330
2A
100
AcDbVisualStyle
  2
Facepattern
 70
    15
 71
     2
 72
     2
 73
     0
 90
        0
 40
-0.6
 41
-30.0
 62
     5
 63
     7
 74
     1
 91
        4
 64
     7
 65
   257
 75
     1
175
     1
 42
1.0
 92
        8
 66
     7
 43
1.0
 76
     1
 77
     6
 78
     2
 67
     7
 79
     5
170
     0
171
     0
290
     0
174
     0
 93
        1
 44
0.0
173
     0
291
     1
 45
0.0
1001
ACAD
1000
AcDbSavedByObjectVersion
1070
     0
  0
VISUALSTYLE
  5
2B
102
{ACAD_REACTORS
330
2A
102
}
330
2A
100
AcDbVisualStyle
  2
Flat
 70
     0
 71
     2
 72
     1
 73
     1
 90
        2
 40
-0.6
 41
30.0
 62
     5
 63
     7
 74
     0
 91
        4
 64
     7
 65
   257
 75
     1
175
     1
 42
1.0
 92
        8
 66
     7
 43
1.0
 76
     1
 77
     6
 78
     2
 67
     7
 79
     5
170
     0
171
     0
290
     0
174
     0
 93
       13
 44
0.0
173
     0
291
     1
 45
0.0
1001
ACAD
1000
AcDbSavedByObjectVersion
1070
     0
  0
VISUALSTYLE
  5
2C
102
{ACAD_REACTORS
330
2A
102
}
330
2A
100
AcDbVisualStyle
  2
FlatWithEdges
 70
     1
 71
     2
 72
     1
 73
     1
 90
        2
 40
-0.6
 41
30.0
 62
     5
 63
     7
 74
     1
 91
        4
 64
     7
 65
   257
 75
     1
175
     1
 42
1.0
 92
        0
 66
   257
 43
1.0
 76
     1
 77
     6
 78
     2
 67
     7
 79
     5
170
     0
171
     0
290
     0
174
     0
 93
       13
 44
0.0
173
     0
291
     1
 45
0.0
1001
ACAD
1000
AcDbSavedByObjectVersion
1070
     0
  0
VISUALSTYLE
  5
2D
102
{ACAD_REACTORS
330
2A
102
}
330
2A
100
AcDbVisualStyle
  2
Gouraud
 70
     2
 71
     2
 72
     2
 73
     1
 90
        2
 40
-0.6
 41
30.0
 62
     5
 63
     7
 74
     0
 91
        4
 64
     7
 65
   257
 75
     1
175
     1
 42
1.0
 92
        0
 66
     7
 43
1.0
 76
     1
 77
     6
 78
     2
 67
     7
 79
     5
170
     0
171
     0
290
     0
174
     0
 93
       13
 44
0.0
173
     0
291
     1
 45
0.0
1001
ACAD
1000
AcDbSavedByObjectVersion
1070
     0
  0
VISUALSTYLE
  5
2E
102
{ACAD_REACTORS
330
2A
102
}
330
2A
100
AcDbVisualStyle
  2
GouraudWithEdges
 70
     3
 71
     2
 72
     2
 73
     1
 90
        2
 40
-0.6
 41
30.0
 62
     5
 63
     7
 74
     1
 91
        4
 64
     7
 65
   257
 75
     1
175
     1
 42
1.0
 92
        0
 66
   257
 43
1.0
 76
     1
 77
     6
 78
     2
 67
     7
 79
     5
170
     0
171
     0
290
     0
174
     0
 93
       13
 44
0.0
173
     0
291
     1
 45
0.0
1001
ACAD
1000
AcDbSavedByObjectVersion
1070
     0
  0
VISUALSTYLE
  5
38
102
{ACAD_REACTORS
330
2A
102
}
330
2A
100
AcDbVisualStyle
  2
Linepattern
 70
    14
 71
     2
 72
     2
 73
     0
 90
        0
 40
-0.6
 41
-30.0
 62
     5
 63
     7
 74
     1
 91
        4
 64
     7
 65
   257
 75
     7
175
     7
 42
1.0
 92
        8
 66
     7
 43
1.0
 76
     1
 77
     6
 78
     2
 67
     7
 79
     5
170
     0
171
     0
290
     0
174
     0
 93
        1
 44
0.0
173
     0
291
     1
 45
0.0
1001
ACAD
1000
AcDbSavedByObjectVersion
1070
     0
  0
VISUALSTYLE
  5
33
102
{ACAD_REACTORS
330
2A
102
}
330
2A
100
AcDbVisualStyle
  2
Realistic
 70
     8
 71
     2
 72
     2
 73
     0
 90
        0
 40
-0.6
 41
-30.0
 62
     5
 63
     7
 74
     1
 91
        0
 64
     7
 65
   257
 75
     1
175
     1
 42
1.0
 92
        8
 66
     8
 43
1.0
 76
     1
 77
     6
 78
     2
 67
     7
 79
     5
170
     0
171
     0
290
     0
174
     0
 93
       13
 44
0.0
173
     0
291
     0
 45
0.0
1001
ACAD
1000
AcDbSavedByObjectVersion
1070
     0
  0
VISUALSTYLE
  5
37
102
{ACAD_REACTORS
330
2A
102
}
330
2A
100
AcDbVisualStyle
  2
Thicken
 70
    13
 71
     2
 72
     2
 73
     0
 90
        0
 40
-0.6
 41
-30.0
 62
     5
 63
     7
 74
     1
 91
        4
 64
     7
 65
   257
 75
     1
175
     1
 42
1.0
 92
       12
 66
     7
 43
1.0
 76
     1
 77
     6
 78
     2
 67
     7
 79
     5
170
     0
171
     0
290
     0
174
     0
 93
        1
 44
0.0
173
     0
291
     1
 45
0.0
1001
ACAD
1000
AcDbSavedByObjectVersion
1070
     0
  0
ENDSEC
  0
EOF
