  0
SECTION
  2
HEADER
  9
$ACADVER
  1
AC1015
  9
$ACADMAINTVER
 70
     6
  9
$DWGCODEPAGE
  3
ANSI_1252
  9
$INSBASE
 10
0.0
 20
0.0
 30
0.0
  9
$EXTMIN
 10
1.000000000000000E+20
 20
1.000000000000000E+20
 30
1.000000000000000E+20
  9
$EXTMAX
 10
-1.000000000000000E+20
 20
-1.000000000000000E+20
 30
-1.000000000000000E+20
  9
$LIMMIN
 10
0.0
 20
0.0
  9
$LIMMAX
 10
12.0
 20
9.0
  9
$ORTHOMODE
 70
     0
  9
$REGENMODE
 70
     1
  9
$FILLMODE
 70
     1
  9
$QTEXTMODE
 70
     0
  9
$MIRRTEXT
 70
     1
  9
$LTSCALE
 40
1.0
  9
$ATTMODE
 70
     1
  9
$TEXTSIZE
 40
0.2
  9
$TRACEWID
 40
0.05
  9
$TEXTSTYLE
  7
Standard
  9
$CLAYER
  8
0
  9
$CELTYPE
  6
ByLayer
  9
$CECOLOR
 62
   256
  9
$CELTSCALE
 40
1.0
  9
$DISPSILH
 70
     0
  9
$DIMSCALE
 40
1.0
  9
$DIMASZ
 40
0.18
  9
$DIMEXO
 40
0.0625
  9
$DIMDLI
 40
0.38
  9
$DIMRND
 40
0.0
  9
$DIMDLE
 40
0.0
  9
$DIMEXE
 40
0.18
  9
$DIMTP
 40
0.0
  9
$DIMTM
 40
0.0
  9
$DIMTXT
 40
0.18
  9
$DIMCEN
 40
0.09
  9
$DIMTSZ
 40
0.0
  9
$DIMTOL
 70
     0
  9
$DIMLIM
 70
     0
  9
$DIMTIH
 70
     1
  9
$DIMTOH
 70
     1
  9
$DIMSE1
 70
     0
  9
$DIMSE2
 70
     0
  9
$DIMTAD
 70
     0
  9
$DIMZIN
 70
     0
  9
$DIMBLK
  1

  9
$DIMASO
 70
     1
  9
$DIMSHO
 70
     1
  9
$DIMPOST
  1

  9
$DIMAPOST
  1

  9
$DIMALT
 70
     0
  9
$DIMALTD
 70
     2
  9
$DIMALTF
 40
25.4
  9
$DIMLFAC
 40
1.0
  9
$DIMTOFL
 70
     0
  9
$DIMTVP
 40
0.0
  9
$DIMTIX
 70
     0
  9
$DIMSOXD
 70
     0
  9
$DIMSAH
 70
     0
  9
$DIMBLK1
  1

  9
$DIMBLK2
  1

  9
$DIMSTYLE
  2
Standard
  9
$DIMCLRD
 70
     0
  9
$DIMCLRE
 70
     0
  9
$DIMCLRT
 70
     0
  9
$DIMTFAC
 40
1.0
  9
$DIMGAP
 40
0.09
  9
$DIMJUST
 70
     0
  9
$DIMSD1
 70
     0
  9
$DIMSD2
 70
     0
  9
$DIMTOLJ
 70
     1
  9
$DIMTZIN
 70
     0
  9
$DIMALTZ
 70
     0
  9
$DIMALTTZ
 70
     0
  9
$DIMUPT
 70
     0
  9
$DIMDEC
 70
     4
  9
$DIMTDEC
 70
     4
  9
$DIMALTU
 70
     2
  9
$DIMALTTD
 70
     2
  9
$DIMTXSTY
  7
Standard
  9
$DIMAUNIT
 70
     0
  9
$DIMADEC
 70
     0
  9
$DIMALTRND
 40
0.0
  9
$DIMAZIN
 70
     0
  9
$DIMDSEP
 70
    46
  9
$DIMATFIT
 70
     3
  9
$DIMFRAC
 70
     0
  9
$DIMLDRBLK
  1

  9
$DIMLUNIT
 70
     2
  9
$DIMLWD
 70
    -2
  9
$DIMLWE
 70
    -2
  9
$DIMTMOVE
 70
     0
  9
$LUNITS
 70
     2
  9
$LUPREC
 70
     4
  9
$SKETCHINC
 40
0.1
  9
$FILLETRAD
 40
0.5
  9
$AUNITS
 70
     0
  9
$AUPREC
 70
     0
  9
$MENU
  1
.
  9
$ELEVATION
 40
0.0
  9
$PELEVATION
 40
0.0
  9
$THICKNESS
 40
0.0
  9
$LIMCHECK
 70
     0
  9
$CHAMFERA
 40
0.5
  9
$CHAMFERB
 40
0.5
  9
$CHAMFERC
 40
1.0
  9
$CHAMFERD
 40
0.0
  9
$SKPOLY
 70
     0
  9
$TDCREATE
 40
2456510.561787569
  9
$TDUCREATE
 40
2456510.165954236
  9
$TDUPDATE
 40
2456510.561787581
  9
$TDUUPDATE
 40
2456510.165954248
  9
$TDINDWG
 40
0.0000000116
  9
$TDUSRTIMER
 40
0.0000000116
  9
$USRTIMER
 70
     1
  9
$ANGBASE
 50
0.0
  9
$ANGDIR
 70
     0
  9
$PDMODE
 70
     0
  9
$PDSIZE
 40
0.0
  9
$PLINEWID
 40
0.0
  9
$SPLFRAME
 70
     0
  9
$SPLINETYPE
 70
     6
  9
$SPLINESEGS
 70
     8
  9
$HANDSEED
  5
5AC
  9
$SURFTAB1
 70
     6
  9
$SURFTAB2
 70
     6
  9
$SURFTYPE
 70
     6
  9
$SURFU
 70
     6
  9
$SURFV
 70
     6
  9
$UCSBASE
  2

  9
$UCSNAME
  2

  9
$UCSORG
 10
0.0
 20
0.0
 30
0.0
  9
$UCSXDIR
 10
1.0
 20
0.0
 30
0.0
  9
$UCSYDIR
 10
0.0
 20
1.0
 30
0.0
  9
$UCSORTHOREF
  2

  9
$UCSORTHOVIEW
 70
     0
  9
$UCSORGTOP
 10
0.0
 20
0.0
 30
0.0
  9
$UCSORGBOTTOM
 10
0.0
 20
0.0
 30
0.0
  9
$UCSORGLEFT
 10
0.0
 20
0.0
 30
0.0
  9
$UCSORGRIGHT
 10
0.0
 20
0.0
 30
0.0
  9
$UCSORGFRONT
 10
0.0
 20
0.0
 30
0.0
  9
$UCSORGBACK
 10
0.0
 20
0.0
 30
0.0
  9
$PUCSBASE
  2

  9
$PUCSNAME
  2

  9
$PUCSORG
 10
0.0
 20
0.0
 30
0.0
  9
$PUCSXDIR
 10
1.0
 20
0.0
 30
0.0
  9
$PUCSYDIR
 10
0.0
 20
1.0
 30
0.0
  9
$PUCSORTHOREF
  2

  9
$PUCSORTHOVIEW
 70
     0
  9
$PUCSORGTOP
 10
0.0
 20
0.0
 30
0.0
  9
$PUCSORGBOTTOM
 10
0.0
 20
0.0
 30
0.0
  9
$PUCSORGLEFT
 10
0.0
 20
0.0
 30
0.0
  9
$PUCSORGRIGHT
 10
0.0
 20
0.0
 30
0.0
  9
$PUCSORGFRONT
 10
0.0
 20
0.0
 30
0.0
  9
$PUCSORGBACK
 10
0.0
 20
0.0
 30
0.0
  9
$USERI1
 70
     0
  9
$USERI2
 70
     0
  9
$USERI3
 70
     0
  9
$USERI4
 70
     0
  9
$USERI5
 70
     0
  9
$USERR1
 40
0.0
  9
$USERR2
 40
0.0
  9
$USERR3
 40
0.0
  9
$USERR4
 40
0.0
  9
$USERR5
 40
0.0
  9
$WORLDVIEW
 70
     1
  9
$SHADEDGE
 70
     3
  9
$SHADEDIF
 70
    70
  9
$TILEMODE
 70
     1
  9
$MAXACTVP
 70
    64
  9
$PINSBASE
 10
0.0
 20
0.0
 30
0.0
  9
$PLIMCHECK
 70
     0
  9
$PEXTMIN
 10
1.000000000000000E+20
 20
1.000000000000000E+20
 30
1.000000000000000E+20
  9
$PEXTMAX
 10
-1.000000000000000E+20
 20
-1.000000000000000E+20
 30
-1.000000000000000E+20
  9
$PLIMMIN
 10
0.0
 20
0.0
  9
$PLIMMAX
 10
12.0
 20
9.0
  9
$UNITMODE
 70
     0
  9
$VISRETAIN
 70
     1
  9
$PLINEGEN
 70
     0
  9
$PSLTSCALE
 70
     1
  9
$TREEDEPTH
 70
  3020
  9
$CMLSTYLE
  2
Standard
  9
$CMLJUST
 70
     0
  9
$CMLSCALE
 40
1.0
  9
$PROXYGRAPHICS
 70
     1
  9
$MEASUREMENT
 70
     0
  9
$CELWEIGHT
370
    -1
  9
$ENDCAPS
280
     0
  9
$JOINSTYLE
280
     0
  9
$LWDISPLAY
290
     1
  9
$INSUNITS
 70
     1
  9
$HYPERLINKBASE
  1

  9
$STYLESHEET
  1

  9
$XEDIT
290
     1
  9
$CEPSNTYPE
380
     0
  9
$PSTYLEMODE
290
     1
  9
$FINGERPRINTGUID
  2
{8C8E75C0-DB59-4225-A169-4DE9C3A61188}
  9
$VERSIONGUID
  2
{FAEB1C32-E019-11D5-929B-00C0DF256EC4}
  9
$EXTNAMES
290
     1
  9
$PSVPSCALE
 40
0.0
  9
$OLESTARTUP
290
     0
  0
ENDSEC
  0
SECTION
  2
CLASSES
  0
CLASS
  1
ACDBDICTIONARYWDFLT
  2
AcDbDictionaryWithDefault
  3
ObjectDBX Classes
 90
        0
280
     0
281
     0
  0
CLASS
  1
VISUALSTYLE
  2
AcDbVisualStyle
  3
ObjectDBX Classes
 90
     4095
280
     0
281
     0
  0
CLASS
  1
ACDBPLACEHOLDER
  2
AcDbPlaceHolder
  3
ObjectDBX Classes
 90
        0
280
     0
281
     0
  0
CLASS
  1
LAYOUT
  2
AcDbLayout
  3
ObjectDBX Classes
 90
        0
280
     0
281
     0
  0
ENDSEC
  0
SECTION
  2
TABLES
  0
TABLE
  2
VPORT
  5
8
330
0
100
AcDbSymbolTable
 70
     1
  0
VPORT
  5
29
330
8
100
AcDbSymbolTableRecord
100
AcDbViewportTableRecord
  2
*Active
 70
     0
 10
0.0
 20
0.0
 11
1.0
 21
1.0
 12
0.0
 22
0.0
 13
0.0
 23
0.0
 14
0.5
 24
0.5
 15
0.5
 25
0.5
 16
0.0
 26
0.0
 36
1.0
 17
348.2798610240412
 27
715.0805553767855
 37
0.0
 40
1430.161110753571
 41
1.175505673408979
 42
50.0
 43
0.0
 44
0.0
 50
0.0
 51
0.0
 71
     0
 72
   100
 73
     1
 74
     3
 75
     0
 76
     0
 77
     0
 78
     0
281
     0
 65
     1
110
0.0
120
0.0
130
0.0
111
1.0
121
0.0
131
0.0
112
0.0
122
1.0
132
0.0
 79
     0
146
0.0
  0
ENDTAB
  0
TABLE
  2
LTYPE
  5
5
330
0
100
AcDbSymbolTable
 70
     1
  0
LTYPE
  5
14
330
5
100
AcDbSymbolTableRecord
100
AcDbLinetypeTableRecord
  2
ByBlock
 70
     0
  3

 72
    65
 73
     0
 40
0.0
  0
LTYPE
  5
15
330
5
100
AcDbSymbolTableRecord
100
AcDbLinetypeTableRecord
  2
ByLayer
 70
     0
  3

 72
    65
 73
     0
 40
0.0
  0
LTYPE
  5
16
330
5
100
AcDbSymbolTableRecord
100
AcDbLinetypeTableRecord
  2
Continuous
 70
     0
  3
Solid line
 72
    65
 73
     0
 40
0.0
  0
ENDTAB
  0
TABLE
  2
LAYER
  5
2
330
0
100
AcDbSymbolTable
 70
     2
  0
LAYER
  5
10
330
2
100
AcDbSymbolTableRecord
100
AcDbLayerTableRecord
  2
0
 70
     0
 62
     7
  6
Continuous
370
    -3
390
F
  0
LAYER
  5
3B
330
2
100
AcDbSymbolTableRecord
100
AcDbLayerTableRecord
  2
Layer 1
 70
     0
 62
     7
  6
Continuous
370
    -3
390
F
  0
ENDTAB
  0
TABLE
  2
STYLE
  5
3
330
0
100
AcDbSymbolTable
 70
     1
  0
STYLE
  5
11
330
3
100
AcDbSymbolTableRecord
100
AcDbTextStyleTableRecord
  2
Standard
 70
     0
 40
0.0
 41
1.0
 50
0.0
 71
     0
 42
0.2
  3
txt
  4

  0
ENDTAB
  0
TABLE
  2
VIEW
  5
6
330
0
100
AcDbSymbolTable
 70
     0
  0
ENDTAB
  0
TABLE
  2
UCS
  5
7
330
0
100
AcDbSymbolTable
 70
     0
  0
ENDTAB
  0
TABLE
  2
APPID
  5
9
330
0
100
AcDbSymbolTable
 70
     1
  0
APPID
  5
12
330
9
100
AcDbSymbolTableRecord
100
AcDbRegAppTableRecord
  2
ACAD
 70
     0
  0
ENDTAB
  0
TABLE
  2
DIMSTYLE
  5
A
330
0
100
AcDbSymbolTable
 70
     1
100
AcDbDimStyleTable
  0
DIMSTYLE
105
27
330
A
100
AcDbSymbolTableRecord
100
AcDbDimStyleTableRecord
  2
Standard
 70
     0
340
11
  0
ENDTAB
  0
TABLE
  2
BLOCK_RECORD
  5
1
330
0
100
AcDbSymbolTable
 70
     3
  0
BLOCK_RECORD
  5
1F
330
1
100
AcDbSymbolTableRecord
100
AcDbBlockTableRecord
  2
*Model_Space
340
22
  0
BLOCK_RECORD
  5
1B
330
1
100
AcDbSymbolTableRecord
100
AcDbBlockTableRecord
  2
*Paper_Space
340
1E
  0
BLOCK_RECORD
  5
23
330
1
100
AcDbSymbolTableRecord
100
AcDbBlockTableRecord
  2
*Paper_Space0
340
26
  0
BLOCK_RECORD
  5
3C
330
1
100
AcDbSymbolTableRecord
100
AcDbBlockTableRecord
  2
block 2
340
0
102
{BLKREFS
331
3D
102
}
  0
BLOCK_RECORD
  5
598
330
1
100
AcDbSymbolTableRecord
100
AcDbBlockTableRecord
  2
block 3
340
0
102
{BLKREFS
331
599
102
}
  0
ENDTAB
  0
ENDSEC
  0
SECTION
  2
BLOCKS
  0
BLOCK
  5
20
330
1F
100
AcDbEntity
  8
0
100
AcDbBlockBegin
  2
*Model_Space
 70
     0
 71
     0
 10
0.0
 20
0.0
 30
0.0
  3
*Model_Space
  1

  0
ENDBLK
  5
21
330
1F
100
AcDbEntity
  8
0
100
AcDbBlockEnd
  0
BLOCK
  5
1C
330
1B
100
AcDbEntity
 67
     1
  8
0
100
AcDbBlockBegin
  2
*Paper_Space
 70
     0
 71
     0
 10
0.0
 20
0.0
 30
0.0
  3
*Paper_Space
  1

  0
ENDBLK
  5
1D
330
1B
100
AcDbEntity
 67
     1
  8
0
100
AcDbBlockEnd
  0
BLOCK
  5
24
330
23
100
AcDbEntity
  8
0
100
AcDbBlockBegin
  2
*Paper_Space0
 70
     0
 71
     0
 10
0.0
 20
0.0
 30
0.0
  3
*Paper_Space0
  1

  0
ENDBLK
  5
25
330
23
100
AcDbEntity
  8
0
100
AcDbBlockEnd
  0
BLOCK
  5
3E
330
3C
100
AcDbEntity
  8
0
100
AcDbBlockBegin
  2
block 2
 70
     0
 71
     0
 10
0.0
 20
0.0
 30
0.0
  3
block 2
  1

  0
SPLINE
  5
40
330
3C
100
AcDbEntity
  8
Layer 1
 62
     7
370
    15
100
AcDbSpline
210
0.0
220
0.0
230
1.0
 70
     8
 71
     3
 72
     8
 73
     4
 74
     0
 42
0.0000000001
 43
0.0000000001
 40
0.0
 40
0.0
 40
0.0
 40
0.0
 40
1.0
 40
1.0
 40
1.0
 40
1.0
 10
185.2677611841518
 20
106.2863633631854
 30
0.0
 10
188.0479532407484
 20
106.170608154881
 30
0.0
 10
190.8284898068936
 20
106.0548529465766
 30
0.0
 10
193.6515733022815
 20
105.9366861714325
 30
0.0
  0
SPLINE
  5
41
330
3C
100
AcDbEntity
  8
Layer 1
 62
     7
370
    15
100
AcDbSpline
210
0.0
220
0.0
230
1.0
 70
     8
 71
     3
 72
     8
 73
     4
 74
     0
 42
0.0000000001
 43
0.0000000001
 40
0.0
 40
0.0
 40
0.0
 40
0.0
 40
1.0
 40
1.0
 40
1.0
 40
1.0
 10
193.6515733022815
 20
105.9366861714325
 30
0.0
 10
196.1985323945268
 20
105.8312662495838
 30
0.0
 10
198.780286951173
 20
105.723090251347
 30
0.0
 10
201.3928751124122
 20
105.6149142531102
 30
0.0
  0
SPLINE
  5
42
330
3C
100
AcDbEntity
  8
Layer 1
 62
     7
370
    15
100
AcDbSpline
210
0.0
220
0.0
230
1.0
 70
     8
 71
     3
 72
     8
 73
     4
 74
     0
 42
0.0000000001
 43
0.0000000001
 40
0.0
 40
0.0
 40
0.0
 40
0.0
 40
1.0
 40
1.0
 40
1.0
 40
1.0
 10
201.3928751124122
 20
105.6149142531102
 30
0.0
 10
203.7322672016711
 20
105.5167290317805
 30
0.0
 10
206.0961194688753
 20
105.4185438104509
 30
0.0
 10
208.4923556336408
 20
105.3186360413787
 30
0.0
  0
SPLINE
  5
43
330
3C
100
AcDbEntity
  8
Layer 1
 62
     7
370
    15
100
AcDbSpline
210
0.0
220
0.0
230
1.0
 70
     8
 71
     3
 72
     8
 73
     4
 74
     0
 42
0.0000000001
 43
0.0000000001
 40
0.0
 40
0.0
 40
0.0
 40
0.0
 40
1.0
 40
1.0
 40
1.0
 40
1.0
 10
208.4923556336408
 20
105.3186360413787
 30
0.0
 10
210.6169460193944
 20
105.2304415969563
 30
0.0
 10
212.7670301117388
 20
105.1405246047913
 30
0.0
 10
214.9494981016446
 20
105.0499185935292
 30
0.0
  0
SPLINE
  5
44
330
3C
100
AcDbEntity
  8
Layer 1
 62
     7
370
    15
100
AcDbSpline
210
0.0
220
0.0
230
1.0
 70
     8
 71
     3
 72
     8
 73
     4
 74
     0
 42
0.0000000001
 43
0.0000000001
 40
0.0
 40
0.0
 40
0.0
 40
0.0
 40
1.0
 40
1.0
 40
1.0
 40
1.0
 10
214.9494981016446
 20
105.0499185935292
 30
0.0
 10
216.8599758029899
 20
104.9699923782714
 30
0.0
 10
218.7954304466032
 20
104.8893771439165
 30
0.0
 10
220.7644747711978
 20
104.8070393618191
 30
0.0
  0
SPLINE
  5
45
330
3C
100
AcDbEntity
  8
Layer 1
 62
     7
370
    15
100
AcDbSpline
210
0.0
220
0.0
230
1.0
 70
     8
 71
     3
 72
     8
 73
     4
 74
     0
 42
0.0000000001
 43
0.0000000001
 40
0.0
 40
0.0
 40
0.0
 40
0.0
 40
1.0
 40
1.0
 40
1.0
 40
1.0
 10
220.7644747711978
 20
104.8070393618191
 30
0.0
 10
222.4594617499407
 20
104.7364149043715
 30
0.0
 10
224.1794256709517
 20
104.6647569182783
 30
0.0
 10
225.9372856423004
 20
104.591720893991
 30
0.0
  0
SPLINE
  5
46
330
3C
100
AcDbEntity
  8
Layer 1
 62
     7
370
    15
100
AcDbSpline
210
0.0
220
0.0
230
1.0
 70
     8
 71
     3
 72
     8
 73
     4
 74
     0
 42
0.0000000001
 43
0.0000000001
 40
0.0
 40
0.0
 40
0.0
 40
0.0
 40
1.0
 40
1.0
 40
1.0
 40
1.0
 10
225.9372856423004
 20
104.591720893991
 30
0.0
 10
227.4176431723123
 20
104.530053684805
 30
0.0
 10
228.9247001923348
 20
104.467697456522
 30
0.0
 10
230.468275224501
 20
104.4029296613993
 30
0.0
  0
SPLINE
  5
47
330
3C
100
AcDbEntity
  8
Layer 1
 62
     7
370
    15
100
AcDbSpline
210
0.0
220
0.0
230
1.0
 70
     8
 71
     3
 72
     8
 73
     4
 74
     0
 42
0.0000000001
 43
0.0000000001
 40
0.0
 40
0.0
 40
0.0
 40
0.0
 40
1.0
 40
1.0
 40
1.0
 40
1.0
 10
230.468275224501
 20
104.4029296613993
 30
0.0
 10
231.730213700748
 20
104.350219700475
 30
0.0
 10
233.0167846097146
 20
104.2971652300021
 30
0.0
 10
234.3569267534768
 20
104.2413546831411
 30
0.0
  0
SPLINE
  5
48
330
3C
100
AcDbEntity
  8
Layer 1
 62
     7
370
    15
100
AcDbSpline
210
0.0
220
0.0
230
1.0
 70
     8
 71
     3
 72
     8
 73
     4
 74
     0
 42
0.0000000001
 43
0.0000000001
 40
0.0
 40
0.0
 40
0.0
 40
0.0
 40
1.0
 40
1.0
 40
1.0
 40
1.0
 10
234.3569267534768
 20
104.2413546831411
 30
0.0
 10
235.432657818746
 20
104.1965684418328
 30
0.0
 10
236.5428398388678
 20
104.1497151432334
 30
0.0
 10
237.6475097062131
 20
104.1042398828281
 30
0.0
  0
SPLINE
  5
49
330
3C
100
AcDbEntity
  8
Layer 1
 62
     7
370
    15
100
AcDbSpline
210
0.0
220
0.0
230
1.0
 70
     8
 71
     3
 72
     8
 73
     4
 74
     0
 42
0.0000000001
 43
0.0000000001
 40
0.0
 40
0.0
 40
0.0
 40
0.0
 40
1.0
 40
1.0
 40
1.0
 40
1.0
 10
237.6475097062131
 20
104.1042398828281
 30
0.0
 10
238.697402555343
 20
104.0601426606169
 30
0.0
 10
239.7426445255678
 20
104.0167344575028
 30
0.0
 10
240.7801350309508
 20
103.9736707639371
 30
0.0
  0
SPLINE
  5
4A
330
3C
100
AcDbEntity
  8
Layer 1
 62
     7
370
    15
100
AcDbSpline
210
0.0
220
0.0
230
1.0
 70
     8
 71
     3
 72
     8
 73
     4
 74
     0
 42
0.0000000001
 43
0.0000000001
 40
0.0
 40
0.0
 40
0.0
 40
0.0
 40
1.0
 40
1.0
 40
1.0
 40
1.0
 10
240.7801350309508
 20
103.9736707639371
 30
0.0
 10
241.817108772011
 20
103.930262560823
 30
0.0
 10
242.8461587934551
 20
103.8868543577088
 30
0.0
 10
243.868490878703
 20
103.8444796832403
 30
0.0
  0
SPLINE
  5
4B
330
3C
100
AcDbEntity
  8
Layer 1
 62
     7
370
    15
100
AcDbSpline
210
0.0
220
0.0
230
1.0
 70
     8
 71
     3
 72
     8
 73
     4
 74
     0
 42
0.0000000001
 43
0.0000000001
 40
0.0
 40
0.0
 40
0.0
 40
0.0
 40
1.0
 40
1.0
 40
1.0
 40
1.0
 10
243.868490878703
 20
103.8444796832403
 30
0.0
 10
244.8908229639509
 20
103.8021050087717
 30
0.0
 10
245.9057480939055
 20
103.7597303343031
 30
0.0
 10
246.9129217590183
 20
103.7180446789316
 30
0.0
  0
SPLINE
  5
4C
330
3C
100
AcDbEntity
  8
Layer 1
 62
     7
370
    15
100
AcDbSpline
210
0.0
220
0.0
230
1.0
 70
     8
 71
     3
 72
     8
 73
     4
 74
     0
 42
0.0000000001
 43
0.0000000001
 40
0.0
 40
0.0
 40
0.0
 40
0.0
 40
1.0
 40
1.0
 40
1.0
 40
1.0
 10
246.9129217590183
 20
103.7180446789316
 30
0.0
 10
247.9199231693568
 20
103.675670004463
 30
0.0
 10
248.9190008600793
 20
103.6339843490915
 30
0.0
 10
249.9127386527996
 20
103.5926432032685
 30
0.0
  0
SPLINE
  5
4D
330
3C
100
AcDbEntity
  8
Layer 1
 62
     7
370
    15
100
AcDbSpline
210
0.0
220
0.0
230
1.0
 70
     8
 71
     3
 72
     8
 73
     4
 74
     0
 42
0.0000000001
 43
0.0000000001
 40
0.0
 40
0.0
 40
0.0
 40
0.0
 40
1.0
 40
1.0
 40
1.0
 40
1.0
 10
249.9127386527996
 20
103.5926432032685
 30
0.0
 10
250.907165464617
 20
103.551646566994
 30
0.0
 10
251.8964246332065
 20
103.510305421171
 30
0.0
 10
252.8684583243697
 20
103.4693087848966
 30
0.0
  0
SPLINE
  5
4E
330
3C
100
AcDbEntity
  8
Layer 1
 62
     7
370
    15
100
AcDbSpline
210
0.0
220
0.0
230
1.0
 70
     8
 71
     3
 72
     8
 73
     4
 74
     0
 42
0.0000000001
 43
0.0000000001
 40
0.0
 40
0.0
 40
0.0
 40
0.0
 40
1.0
 40
1.0
 40
1.0
 40
1.0
 10
252.8684583243697
 20
103.4693087848966
 30
0.0
 10
253.9236910715017
 20
103.4252115626854
 30
0.0
 10
254.9589422648193
 20
103.3828368882168
 30
0.0
 10
255.9531968218624
 20
103.3411512328453
 30
0.0
  0
SPLINE
  5
4F
330
3C
100
AcDbEntity
  8
Layer 1
 62
     7
370
    15
100
AcDbSpline
210
0.0
220
0.0
230
1.0
 70
     8
 71
     3
 72
     8
 73
     4
 74
     0
 42
0.0000000001
 43
0.0000000001
 40
0.0
 40
0.0
 40
0.0
 40
0.0
 40
1.0
 40
1.0
 40
1.0
 40
1.0
 10
255.9531968218624
 20
103.3411512328453
 30
0.0
 10
257.1910196297127
 20
103.289819310115
 30
0.0
 10
258.3647636615373
 20
103.240554444676
 30
0.0
 10
259.5099134008344
 20
103.1933566365281
 30
0.0
  0
SPLINE
  5
50
330
3C
100
AcDbEntity
  8
Layer 1
 62
     7
370
    15
100
AcDbSpline
210
0.0
220
0.0
230
1.0
 70
     8
 71
     3
 72
     8
 73
     4
 74
     0
 42
0.0000000001
 43
0.0000000001
 40
0.0
 40
0.0
 40
0.0
 40
0.0
 40
1.0
 40
1.0
 40
1.0
 40
1.0
 10
259.5099134008344
 20
103.1933566365281
 30
0.0
 10
260.8938082572592
 20
103.1351345228273
 30
0.0
 10
262.2351561844412
 20
103.0793239759663
 30
0.0
 10
263.5470485452244
 20
103.0242024482023
 30
0.0
  0
SPLINE
  5
51
330
3C
100
AcDbEntity
  8
Layer 1
 62
     7
370
    15
100
AcDbSpline
210
0.0
220
0.0
230
1.0
 70
     8
 71
     3
 72
     8
 73
     4
 74
     0
 42
0.0000000001
 43
0.0000000001
 40
0.0
 40
0.0
 40
0.0
 40
0.0
 40
1.0
 40
1.0
 40
1.0
 40
1.0
 10
263.5470485452244
 20
103.0242024482023
 30
0.0
 10
265.0894177939707
 20
102.9601236721766
 30
0.0
 10
266.5902736421198
 20
102.8977674438936
 30
0.0
 10
268.0647745098067
 20
102.8364447442562
 30
0.0
  0
SPLINE
  5
52
330
3C
100
AcDbEntity
  8
Layer 1
 62
     7
370
    15
100
AcDbSpline
210
0.0
220
0.0
230
1.0
 70
     8
 71
     3
 72
     8
 73
     4
 74
     0
 42
0.0000000001
 43
0.0000000001
 40
0.0
 40
0.0
 40
0.0
 40
0.0
 40
1.0
 40
1.0
 40
1.0
 40
1.0
 10
268.0647745098067
 20
102.8364447442562
 30
0.0
 10
269.7618285458408
 20
102.76547577726
 30
0.0
 10
271.4244316270224
 20
102.696573867555
 30
0.0
 10
273.0636080589043
 20
102.6283609769471
 30
0.0
  0
SPLINE
  5
53
330
3C
100
AcDbEntity
  8
Layer 1
 62
     7
370
    15
100
AcDbSpline
210
0.0
220
0.0
230
1.0
 70
     8
 71
     3
 72
     8
 73
     4
 74
     0
 42
0.0000000001
 43
0.0000000001
 40
0.0
 40
0.0
 40
0.0
 40
0.0
 40
1.0
 40
1.0
 40
1.0
 40
1.0
 10
273.0636080589043
 20
102.6283609769471
 30
0.0
 10
274.9167249204202
 20
102.550846328529
 30
0.0
 10
276.7402139607629
 20
102.475398737402
 30
0.0
 10
278.5430324281941
 20
102.3996066367265
 30
0.0
  0
SPLINE
  5
54
330
3C
100
AcDbEntity
  8
Layer 1
 62
     7
370
    15
100
AcDbSpline
210
0.0
220
0.0
230
1.0
 70
     8
 71
     3
 72
     8
 73
     4
 74
     0
 42
0.0000000001
 43
0.0000000001
 40
0.0
 40
0.0
 40
0.0
 40
0.0
 40
1.0
 40
1.0
 40
1.0
 40
1.0
 10
278.5430324281941
 20
102.3996066367265
 30
0.0
 10
280.5520398604176
 20
102.3162353259834
 30
0.0
 10
282.5360703503729
 20
102.2332085247889
 30
0.0
 10
284.5030476176763
 20
102.1515597617885
 30
0.0
  0
SPLINE
  5
55
330
3C
100
AcDbEntity
  8
Layer 1
 62
     7
370
    15
100
AcDbSpline
210
0.0
220
0.0
230
1.0
 70
     8
 71
     3
 72
     8
 73
     4
 74
     0
 42
0.0000000001
 43
0.0000000001
 40
0.0
 40
0.0
 40
0.0
 40
0.0
 40
1.0
 40
1.0
 40
1.0
 40
1.0
 10
284.5030476176763
 20
102.1515597617885
 30
0.0
 10
286.6686346397044
 20
102.0609537505264
 30
0.0
 10
288.8128620697239
 20
101.972070287007
 30
0.0
 10
290.9436536273509
 20
101.882842313939
 30
0.0
  0
SPLINE
  5
56
330
3C
100
AcDbEntity
  8
Layer 1
 62
     7
370
    15
100
AcDbSpline
210
0.0
220
0.0
230
1.0
 70
     8
 71
     3
 72
     8
 73
     4
 74
     0
 42
0.0000000001
 43
0.0000000001
 40
0.0
 40
0.0
 40
0.0
 40
0.0
 40
1.0
 40
1.0
 40
1.0
 40
1.0
 10
290.9436536273509
 20
101.882842313939
 30
0.0
 10
293.2659924939578
 20
101.786379640352
 30
0.0
 10
295.5723116665583
 20
101.689916966765
 30
0.0
 10
297.8655394763149
 20
101.5951768409207
 30
0.0
  0
SPLINE
  5
57
330
3C
100
AcDbEntity
  8
Layer 1
 62
     7
370
    15
100
AcDbSpline
210
0.0
220
0.0
230
1.0
 70
     8
 71
     3
 72
     8
 73
     4
 74
     0
 42
0.0000000001
 43
0.0000000001
 40
0.0
 40
0.0
 40
0.0
 40
0.0
 40
1.0
 40
1.0
 40
1.0
 40
1.0
 10
297.8655394763149
 20
101.5951768409207
 30
0.0
 10
300.0368109058936
 20
101.5045708296586
 30
0.0
 10
302.1963690108224
 20
101.4146538374936
 30
0.0
 10
304.3555826062028
 20
101.3247368453285
 30
0.0
  0
SPLINE
  5
58
330
3C
100
AcDbEntity
  8
Layer 1
 62
     7
370
    15
100
AcDbSpline
210
0.0
220
0.0
230
1.0
 70
     8
 71
     3
 72
     8
 73
     4
 74
     0
 42
0.0000000001
 43
0.0000000001
 40
0.0
 40
0.0
 40
0.0
 40
0.0
 40
1.0
 40
1.0
 40
1.0
 40
1.0
 10
425.9767549933322
 20
101.310611953839
 30
0.0
 10
428.6670300577638
 20
101.4229220666582
 30
0.0
 10
431.3573051221954
 20
101.5352321794773
 30
0.0
 10
434.04689116753
 20
101.6468532731994
 30
0.0
  0
SPLINE
  5
59
330
3C
100
AcDbEntity
  8
Layer 1
 62
     7
370
    15
100
AcDbSpline
210
0.0
220
0.0
230
1.0
 70
     8
 71
     3
 72
     8
 73
     4
 74
     0
 42
0.0000000001
 43
0.0000000001
 40
0.0
 40
0.0
 40
0.0
 40
0.0
 40
1.0
 40
1.0
 40
1.0
 40
1.0
 10
434.04689116753
 20
101.6468532731994
 30
0.0
 10
436.6689533413536
 20
101.7564073096303
 30
0.0
 10
439.2920490438228
 20
101.8656168365128
 30
0.0
 10
441.9141112176465
 20
101.9744818538467
 30
0.0
  0
SPLINE
  5
5A
330
3C
100
AcDbEntity
  8
Layer 1
 62
     7
370
    15
100
AcDbSpline
210
0.0
220
0.0
230
1.0
 70
     8
 71
     3
 72
     8
 73
     4
 74
     0
 42
0.0000000001
 43
0.0000000001
 40
0.0
 40
0.0
 40
0.0
 40
0.0
 40
1.0
 40
1.0
 40
1.0
 40
1.0
 10
441.9141112176465
 20
101.9744818538467
 30
0.0
 10
444.2733126059456
 20
102.0733560942733
 30
0.0
 10
446.6335475228902
 20
102.171541315603
 30
0.0
 10
448.9937824398349
 20
102.2697265369326
 30
0.0
  0
SPLINE
  5
5B
330
3C
100
AcDbEntity
  8
Layer 1
 62
     7
370
    15
100
AcDbSpline
210
0.0
220
0.0
230
1.0
 70
     8
 71
     3
 72
     8
 73
     4
 74
     0
 42
0.0000000001
 43
0.0000000001
 40
0.0
 40
0.0
 40
0.0
 40
0.0
 40
1.0
 40
1.0
 40
1.0
 40
1.0
 10
448.9937824398349
 20
102.2697265369326
 30
0.0
 10
451.0908120617065
 20
102.3572319622579
 30
0.0
 10
453.1881861931266
 20
102.4443928780347
 30
0.0
 10
455.2852158149981
 20
102.5318983033601
 30
0.0
  0
SPLINE
  5
5C
330
3C
100
AcDbEntity
  8
Layer 1
 62
     7
370
    15
100
AcDbSpline
210
0.0
220
0.0
230
1.0
 70
     8
 71
     3
 72
     8
 73
     4
 74
     0
 42
0.0000000001
 43
0.0000000001
 40
0.0
 40
0.0
 40
0.0
 40
0.0
 40
1.0
 40
1.0
 40
1.0
 40
1.0
 10
455.2852158149981
 20
102.5318983033601
 30
0.0
 10
457.1197291608937
 20
102.6083794231326
 30
0.0
 10
458.9549315258863
 20
102.6848605429052
 30
0.0
 10
460.7891003622333
 20
102.7613416626777
 30
0.0
  0
SPLINE
  5
5D
330
3C
100
AcDbEntity
  8
Layer 1
 62
     7
370
    15
100
AcDbSpline
210
0.0
220
0.0
230
1.0
 70
     8
 71
     3
 72
     8
 73
     4
 74
     0
 42
0.0000000001
 43
0.0000000001
 40
0.0
 40
0.0
 40
0.0
 40
0.0
 40
1.0
 40
1.0
 40
1.0
 40
1.0
 10
460.7891003622333
 20
102.7613416626777
 30
0.0
 10
462.0462157048009
 20
102.8137071140535
 30
0.0
 10
463.3040200664657
 20
102.8664170749778
 30
0.0
 10
464.5611354090333
 20
102.9187825263536
 30
0.0
  0
SPLINE
  5
5E
330
3C
100
AcDbEntity
  8
Layer 1
 62
     7
370
    15
100
AcDbSpline
210
0.0
220
0.0
230
1.0
 70
     8
 71
     3
 72
     8
 73
     4
 74
     0
 42
0.0000000001
 43
0.0000000001
 40
0.0
 40
0.0
 40
0.0
 40
0.0
 40
1.0
 40
1.0
 40
1.0
 40
1.0
 10
464.5611354090333
 20
102.9187825263536
 30
0.0
 10
465.6566757733428
 20
102.9642577867589
 30
0.0
 10
466.7515271185552
 20
103.0093885376157
 30
0.0
 10
467.8470674828646
 20
103.0552083075695
 30
0.0
  0
SPLINE
  5
5F
330
3C
100
AcDbEntity
  8
Layer 1
 62
     7
370
    15
100
AcDbSpline
210
0.0
220
0.0
230
1.0
 70
     8
 71
     3
 72
     8
 73
     4
 74
     0
 42
0.0000000001
 43
0.0000000001
 40
0.0
 40
0.0
 40
0.0
 40
0.0
 40
1.0
 40
1.0
 40
1.0
 40
1.0
 10
467.8470674828646
 20
103.0552083075695
 30
0.0
 10
468.7803438498188
 20
103.0941378865529
 30
0.0
 10
469.7146537454186
 20
103.1334119750847
 30
0.0
 10
470.6465520741787
 20
103.172341554068
 30
0.0
  0
SPLINE
  5
60
330
3C
100
AcDbEntity
  8
Layer 1
 62
     7
370
    15
100
AcDbSpline
210
0.0
220
0.0
230
1.0
 70
     8
 71
     3
 72
     8
 73
     4
 74
     0
 42
0.0000000001
 43
0.0000000001
 40
0.0
 40
0.0
 40
0.0
 40
0.0
 40
1.0
 40
1.0
 40
1.0
 40
1.0
 10
470.6465520741787
 20
103.172341554068
 30
0.0
 10
471.4168754246805
 20
103.2040364325323
 30
0.0
 10
472.1854762274398
 20
103.2364203300937
 30
0.0
 10
472.9599336925239
 20
103.268115208558
 30
0.0
  0
SPLINE
  5
61
330
3C
100
AcDbEntity
  8
Layer 1
 62
     7
370
    15
100
AcDbSpline
210
0.0
220
0.0
230
1.0
 70
     8
 71
     3
 72
     8
 73
     4
 74
     0
 42
0.0000000001
 43
0.0000000001
 40
0.0
 40
0.0
 40
0.0
 40
0.0
 40
1.0
 40
1.0
 40
1.0
 40
1.0
 10
472.9599336925239
 20
103.268115208558
 30
0.0
 10
473.6868488399116
 20
103.2987765583767
 30
0.0
 10
474.4182426114302
 20
103.3287488890984
 30
0.0
 10
475.1627277457927
 20
103.3604437675627
 30
0.0
  0
SPLINE
  5
62
330
3C
100
AcDbEntity
  8
Layer 1
 62
     7
370
    15
100
AcDbSpline
210
0.0
220
0.0
230
1.0
 70
     8
 71
     3
 72
     8
 73
     4
 74
     0
 42
0.0000000001
 43
0.0000000001
 40
0.0
 40
0.0
 40
0.0
 40
0.0
 40
1.0
 40
1.0
 40
1.0
 40
1.0
 10
475.1627277457927
 20
103.3604437675627
 30
0.0
 10
476.230018327123
 20
103.4045409897739
 30
0.0
 10
477.3241806532384
 20
103.4503607597277
 30
0.0
 10
478.4286782658095
 20
103.4961805296815
 30
0.0
  0
SPLINE
  5
63
330
3C
100
AcDbEntity
  8
Layer 1
 62
     7
370
    15
100
AcDbSpline
210
0.0
220
0.0
230
1.0
 70
     8
 71
     3
 72
     8
 73
     4
 74
     0
 42
0.0000000001
 43
0.0000000001
 40
0.0
 40
0.0
 40
0.0
 40
0.0
 40
1.0
 40
1.0
 40
1.0
 40
1.0
 10
478.4286782658095
 20
103.4961805296815
 30
0.0
 10
479.7805337342215
 20
103.5526800956396
 30
0.0
 10
481.1482366418658
 20
103.6098686806948
 30
0.0
 10
482.5293754219024
 20
103.6674017752984
 30
0.0
  0
SPLINE
  5
64
330
3C
100
AcDbEntity
  8
Layer 1
 62
     7
370
    15
100
AcDbSpline
210
0.0
220
0.0
230
1.0
 70
     8
 71
     3
 72
     8
 73
     4
 74
     0
 42
0.0000000001
 43
0.0000000001
 40
0.0
 40
0.0
 40
0.0
 40
0.0
 40
1.0
 40
1.0
 40
1.0
 40
1.0
 10
482.5293754219024
 20
103.6674017752984
 30
0.0
 10
484.1564940195859
 20
103.7349256468093
 30
0.0
 10
485.8035941710838
 20
103.8038275565143
 30
0.0
 10
487.4648192140713
 20
103.8727294662193
 30
0.0
  0
SPLINE
  5
65
330
3C
100
AcDbEntity
  8
Layer 1
 62
     7
370
    15
100
AcDbSpline
210
0.0
220
0.0
230
1.0
 70
     8
 71
     3
 72
     8
 73
     4
 74
     0
 42
0.0000000001
 43
0.0000000001
 40
0.0
 40
0.0
 40
0.0
 40
0.0
 40
1.0
 40
1.0
 40
1.0
 40
1.0
 10
487.4648192140713
 20
103.8727294662193
 30
0.0
 10
489.3692679983174
 20
103.9519666623801
 30
0.0
 10
491.2933538268294
 20
104.0325818967349
 30
0.0
 10
493.2356986614133
 20
104.1131971310898
 30
0.0
  0
SPLINE
  5
66
330
3C
100
AcDbEntity
  8
Layer 1
 62
     7
370
    15
100
AcDbSpline
210
0.0
220
0.0
230
1.0
 70
     8
 71
     3
 72
     8
 73
     4
 74
     0
 42
0.0000000001
 43
0.0000000001
 40
0.0
 40
0.0
 40
0.0
 40
0.0
 40
1.0
 40
1.0
 40
1.0
 40
1.0
 10
493.2356986614133
 20
104.1131971310898
 30
0.0
 10
495.4147215558339
 20
104.2038031423518
 30
0.0
 10
497.616482080457
 20
104.2954426822595
 30
0.0
 10
499.8409802352828
 20
104.3888047699098
 30
0.0
  0
SPLINE
  5
67
330
3C
100
AcDbEntity
  8
Layer 1
 62
     7
370
    15
100
AcDbSpline
210
0.0
220
0.0
230
1.0
 70
     8
 71
     3
 72
     8
 73
     4
 74
     0
 42
0.0000000001
 43
0.0000000001
 40
0.0
 40
0.0
 40
0.0
 40
0.0
 40
1.0
 40
1.0
 40
1.0
 40
1.0
 10
499.8409802352828
 20
104.3888047699098
 30
0.0
 10
502.2942327303293
 20
104.4911241058217
 30
0.0
 10
504.7743569701606
 20
104.5941324608306
 30
0.0
 10
507.2816974643254
 20
104.6981743444852
 30
0.0
  0
SPLINE
  5
68
330
3C
100
AcDbEntity
  8
Layer 1
 62
     7
370
    15
100
AcDbSpline
210
0.0
220
0.0
230
1.0
 70
     8
 71
     3
 72
     8
 73
     4
 74
     0
 42
0.0000000001
 43
0.0000000001
 40
0.0
 40
0.0
 40
0.0
 40
0.0
 40
1.0
 40
1.0
 40
1.0
 40
1.0
 10
507.2816974643254
 20
104.6981743444852
 30
0.0
 10
510.0084905409007
 20
104.812207005047
 30
0.0
 10
512.7662894768432
 20
104.9269286847058
 30
0.0
 10
515.556472310347
 20
105.0433729121072
 30
0.0
  0
SPLINE
  5
69
330
3C
100
AcDbEntity
  8
Layer 1
 62
     7
370
    15
100
AcDbSpline
210
0.0
220
0.0
230
1.0
 70
     8
 71
     3
 72
     8
 73
     4
 74
     0
 42
0.0000000001
 43
0.0000000001
 40
0.0
 40
0.0
 40
0.0
 40
0.0
 40
1.0
 40
1.0
 40
1.0
 40
1.0
 10
515.556472310347
 20
105.0433729121072
 30
0.0
 10
518.5571504779996
 20
105.1680853686733
 30
0.0
 10
521.5953801864415
 20
105.2945203729819
 30
0.0
 10
524.6666828115417
 20
105.4226779250332
 30
0.0
  0
SPLINE
  5
6A
330
3C
100
AcDbEntity
  8
Layer 1
 62
     7
370
    15
100
AcDbSpline
210
0.0
220
0.0
230
1.0
 70
     8
 71
     3
 72
     8
 73
     4
 74
     0
 42
0.0000000001
 43
0.0000000001
 40
0.0
 40
0.0
 40
0.0
 40
0.0
 40
1.0
 40
1.0
 40
1.0
 40
1.0
 10
524.6666828115417
 20
105.4226779250332
 30
0.0
 10
527.9378009747865
 20
105.5591037062491
 30
0.0
 10
531.2478487170144
 20
105.6972520352076
 30
0.0
 10
534.6119844583609
 20
105.8371229119088
 30
0.0
  0
SPLINE
  5
6B
330
3C
100
AcDbEntity
  8
Layer 1
 62
     7
370
    15
100
AcDbSpline
210
0.0
220
0.0
230
1.0
 70
     8
 71
     3
 72
     8
 73
     4
 74
     0
 42
0.0000000001
 43
0.0000000001
 40
0.0
 40
0.0
 40
0.0
 40
0.0
 40
1.0
 40
1.0
 40
1.0
 40
1.0
 10
534.6119844583609
 20
105.8371229119088
 30
0.0
 10
538.1652559418476
 20
105.984917508226
 30
0.0
 10
541.7788165963261
 20
106.1354681809314
 30
0.0
 10
545.3927217603532
 20
106.2863633631854
 30
0.0
  0
POLYLINE
  5
6C
330
3C
100
AcDbEntity
  8
Layer 1
 62
     7
370
    15
100
AcDb2dPolyline
 66
     1
 10
0.0
 20
0.0
 30
0.0
  0
VERTEX
  5
6D
330
6C
100
AcDbEntity
  8
Layer 1
 62
     7
370
    15
100
AcDbVertex
100
AcDb2dVertex
 10
160.3302652593966
 20
332.7845105504845
 30
0.0
  0
VERTEX
  5
6E
330
6C
100
AcDbEntity
  8
Layer 1
 62
     7
370
    15
100
AcDbVertex
100
AcDb2dVertex
 10
570.3297009207856
 20
332.7845105504845
 30
0.0
  0
SEQEND
  5
6F
330
6C
100
AcDbEntity
  8
Layer 1
370
    15
  0
POLYLINE
  5
70
330
3C
100
AcDbEntity
  8
Layer 1
 62
     7
370
    15
100
AcDb2dPolyline
 66
     1
 10
0.0
 20
0.0
 30
0.0
  0
VERTEX
  5
71
330
70
100
AcDbEntity
  8
Layer 1
 62
     7
370
    15
100
AcDbVertex
100
AcDb2dVertex
 10
570.3297009207856
 20
331.2845159762066
 30
0.0
  0
VERTEX
  5
72
330
70
100
AcDbEntity
  8
Layer 1
 62
     7
370
    15
100
AcDbVertex
100
AcDb2dVertex
 10
570.3297009207856
 20
332.7845105504845
 30
0.0
  0
SEQEND
  5
73
330
70
100
AcDbEntity
  8
Layer 1
370
    15
  0
POLYLINE
  5
74
330
3C
100
AcDbEntity
  8
Layer 1
 62
     7
370
    15
100
AcDb2dPolyline
 66
     1
 10
0.0
 20
0.0
 30
0.0
  0
VERTEX
  5
75
330
74
100
AcDbEntity
  8
Layer 1
 62
     7
370
    15
100
AcDbVertex
100
AcDb2dVertex
 10
160.3302652593966
 20
331.2845159762066
 30
0.0
  0
VERTEX
  5
76
330
74
100
AcDbEntity
  8
Layer 1
 62
     7
370
    15
100
AcDbVertex
100
AcDb2dVertex
 10
570.3297009207856
 20
331.2845159762066
 30
0.0
  0
SEQEND
  5
77
330
74
100
AcDbEntity
  8
Layer 1
370
    15
  0
POLYLINE
  5
78
330
3C
100
AcDbEntity
  8
Layer 1
 62
     7
370
    15
100
AcDb2dPolyline
 66
     1
 10
0.0
 20
0.0
 30
0.0
  0
VERTEX
  5
79
330
78
100
AcDbEntity
  8
Layer 1
 62
     7
370
    15
100
AcDbVertex
100
AcDb2dVertex
 10
160.3302652593966
 20
331.2845159762066
 30
0.0
  0
VERTEX
  5
7A
330
78
100
AcDbEntity
  8
Layer 1
 62
     7
370
    15
100
AcDbVertex
100
AcDb2dVertex
 10
160.3302652593966
 20
332.7845105504845
 30
0.0
  0
SEQEND
  5
7B
330
78
100
AcDbEntity
  8
Layer 1
370
    15
  0
POLYLINE
  5
7C
330
3C
100
AcDbEntity
  8
Layer 1
 62
     7
370
    15
100
AcDb2dPolyline
 66
     1
 10
0.0
 20
0.0
 30
0.0
  0
VERTEX
  5
7D
330
7C
100
AcDbEntity
  8
Layer 1
 62
     7
370
    15
100
AcDbVertex
100
AcDb2dVertex
 10
150.3303588491362
 20
332.7845105504845
 30
0.0
  0
VERTEX
  5
7E
330
7C
100
AcDbEntity
  8
Layer 1
 62
     7
370
    15
100
AcDbVertex
100
AcDb2dVertex
 10
160.3302652593966
 20
332.7845105504845
 30
0.0
  0
SEQEND
  5
7F
330
7C
100
AcDbEntity
  8
Layer 1
370
    15
  0
POLYLINE
  5
80
330
3C
100
AcDbEntity
  8
Layer 1
 62
     7
370
    15
100
AcDb2dPolyline
 66
     1
 10
0.0
 20
0.0
 30
0.0
  0
VERTEX
  5
81
330
80
100
AcDbEntity
  8
Layer 1
 62
     7
370
    15
100
AcDbVertex
100
AcDb2dVertex
 10
150.3303588491362
 20
331.2845159762066
 30
0.0
  0
VERTEX
  5
82
330
80
100
AcDbEntity
  8
Layer 1
 62
     7
370
    15
100
AcDbVertex
100
AcDb2dVertex
 10
160.3302652593966
 20
331.2845159762066
 30
0.0
  0
SEQEND
  5
83
330
80
100
AcDbEntity
  8
Layer 1
370
    15
  0
POLYLINE
  5
84
330
3C
100
AcDbEntity
  8
Layer 1
 62
     7
370
    15
100
AcDb2dPolyline
 66
     1
 10
0.0
 20
0.0
 30
0.0
  0
VERTEX
  5
85
330
84
100
AcDbEntity
  8
Layer 1
 62
     7
370
    15
100
AcDbVertex
100
AcDb2dVertex
 10
150.3303588491362
 20
331.2845159762066
 30
0.0
  0
VERTEX
  5
86
330
84
100
AcDbEntity
  8
Layer 1
 62
     7
370
    15
100
AcDbVertex
100
AcDb2dVertex
 10
150.3303588491362
 20
332.7845105504845
 30
0.0
  0
SEQEND
  5
87
330
84
100
AcDbEntity
  8
Layer 1
370
    15
  0
POLYLINE
  5
88
330
3C
100
AcDbEntity
  8
Layer 1
 62
     7
370
    15
100
AcDb2dPolyline
 66
     1
 10
0.0
 20
0.0
 30
0.0
  0
VERTEX
  5
89
330
88
100
AcDbEntity
  8
Layer 1
 62
     7
370
    15
100
AcDbVertex
100
AcDb2dVertex
 10
580.3301240953689
 20
331.2845159762066
 30
0.0
  0
VERTEX
  5
8A
330
88
100
AcDbEntity
  8
Layer 1
 62
     7
370
    15
100
AcDbVertex
100
AcDb2dVertex
 10
580.3301240953689
 20
332.7845105504845
 30
0.0
  0
SEQEND
  5
8B
330
88
100
AcDbEntity
  8
Layer 1
370
    15
  0
POLYLINE
  5
8C
330
3C
100
AcDbEntity
  8
Layer 1
 62
     7
370
    15
100
AcDb2dPolyline
 66
     1
 10
0.0
 20
0.0
 30
0.0
  0
VERTEX
  5
8D
330
8C
100
AcDbEntity
  8
Layer 1
 62
     7
370
    15
100
AcDbVertex
100
AcDb2dVertex
 10
570.3297009207856
 20
332.7845105504845
 30
0.0
  0
VERTEX
  5
8E
330
8C
100
AcDbEntity
  8
Layer 1
 62
     7
370
    15
100
AcDbVertex
100
AcDb2dVertex
 10
580.3301240953689
 20
332.7845105504845
 30
0.0
  0
SEQEND
  5
8F
330
8C
100
AcDbEntity
  8
Layer 1
370
    15
  0
POLYLINE
  5
90
330
3C
100
AcDbEntity
  8
Layer 1
 62
     7
370
    15
100
AcDb2dPolyline
 66
     1
 10
0.0
 20
0.0
 30
0.0
  0
VERTEX
  5
91
330
90
100
AcDbEntity
  8
Layer 1
 62
     7
370
    15
100
AcDbVertex
100
AcDb2dVertex
 10
570.3297009207856
 20
331.2845159762066
 30
0.0
  0
VERTEX
  5
92
330
90
100
AcDbEntity
  8
Layer 1
 62
     7
370
    15
100
AcDbVertex
100
AcDb2dVertex
 10
580.3301240953689
 20
331.2845159762066
 30
0.0
  0
SEQEND
  5
93
330
90
100
AcDbEntity
  8
Layer 1
370
    15
  0
SPLINE
  5
94
330
3C
100
AcDbEntity
  8
Layer 1
 62
     7
370
    15
100
AcDbSpline
210
0.0
220
0.0
230
1.0
 70
     8
 71
     3
 72
     8
 73
     4
 74
     0
 42
0.0000000001
 43
0.0000000001
 40
0.0
 40
0.0
 40
0.0
 40
0.0
 40
1.0
 40
1.0
 40
1.0
 40
1.0
 10
173.8303886826709
 20
117.7847140547552
 30
0.0
 10
173.8303886826709
 20
111.4457383618955
 30
0.0
 10
178.9603081149822
 20
106.301866292869
 30
0.0
 10
185.2992838078418
 20
106.2853298345398
 30
0.0
  0
SPLINE
  5
95
330
3C
100
AcDbEntity
  8
Layer 1
 62
     7
370
    15
100
AcDbSpline
210
0.0
220
0.0
230
1.0
 70
     8
 71
     3
 72
     8
 73
     4
 74
     0
 42
0.0000000001
 43
0.0000000001
 40
0.0
 40
0.0
 40
0.0
 40
0.0
 40
1.0
 40
1.0
 40
1.0
 40
1.0
 10
545.3451794426568
 20
106.2853298345398
 30
0.0
 10
551.6900117978414
 20
106.2935980637044
 30
0.0
 10
556.8297497522857
 20
111.4398816995706
 30
0.0
 10
556.8297497522857
 20
117.7847140547552
 30
0.0
  0
POLYLINE
  5
96
330
3C
100
AcDbEntity
  8
Layer 1
 62
     7
370
    15
100
AcDb2dPolyline
 66
     1
 10
0.0
 20
0.0
 30
0.0
  0
VERTEX
  5
97
330
96
100
AcDbEntity
  8
Layer 1
 62
     7
370
    15
100
AcDbVertex
100
AcDb2dVertex
 10
173.8303886826709
 20
117.7847140547552
 30
0.0
  0
VERTEX
  5
98
330
96
100
AcDbEntity
  8
Layer 1
 62
     7
370
    15
100
AcDbVertex
100
AcDb2dVertex
 10
173.8303886826709
 20
331.2845159762066
 30
0.0
  0
SEQEND
  5
99
330
96
100
AcDbEntity
  8
Layer 1
370
    15
  0
POLYLINE
  5
9A
330
3C
100
AcDbEntity
  8
Layer 1
 62
     7
370
    15
100
AcDb2dPolyline
 66
     1
 10
0.0
 20
0.0
 30
0.0
  0
VERTEX
  5
9B
330
9A
100
AcDbEntity
  8
Layer 1
 62
     7
370
    15
100
AcDbVertex
100
AcDb2dVertex
 10
556.8297497522857
 20
117.7847140547552
 30
0.0
  0
VERTEX
  5
9C
330
9A
100
AcDbEntity
  8
Layer 1
 62
     7
370
    15
100
AcDbVertex
100
AcDb2dVertex
 10
556.8297497522857
 20
331.2845159762066
 30
0.0
  0
SEQEND
  5
9D
330
9A
100
AcDbEntity
  8
Layer 1
370
    15
  0
POLYLINE
  5
9E
330
3C
100
AcDbEntity
  8
Layer 1
 62
     7
370
    15
100
AcDb2dPolyline
 66
     1
 10
0.0
 20
0.0
 30
0.0
  0
VERTEX
  5
9F
330
9E
100
AcDbEntity
  8
Layer 1
 62
     7
370
    15
100
AcDbVertex
100
AcDb2dVertex
 10
185.3001450817132
 20
106.2853298345398
 30
0.0
  0
VERTEX
  5
A0
330
9E
100
AcDbEntity
  8
Layer 1
 62
     7
370
    15
100
AcDbVertex
100
AcDb2dVertex
 10
248.1311075226027
 20
103.7855685504425
 30
0.0
  0
VERTEX
  5
A1
330
9E
100
AcDbEntity
  8
Layer 1
 62
     7
370
    15
100
AcDbVertex
100
AcDb2dVertex
 10
310.6614853824041
 20
101.2988986291892
 30
0.0
  0
SEQEND
  5
A2
330
9E
100
AcDbEntity
  8
Layer 1
370
    15
  0
SPLINE
  5
A3
330
3C
100
AcDbEntity
  8
Layer 1
 62
     7
370
    15
100
AcDbSpline
210
0.0
220
0.0
230
1.0
 70
     8
 71
     3
 72
     8
 73
     4
 74
     0
 42
0.0000000001
 43
0.0000000001
 40
0.0
 40
0.0
 40
0.0
 40
0.0
 40
1.0
 40
1.0
 40
1.0
 40
1.0
 10
304.6830389320758
 20
101.310611953839
 30
0.0
 10
304.6830389320758
 20
101.310611953839
 30
0.0
 10
304.7192124346709
 20
101.3088894060964
 30
0.0
 10
304.7874253252788
 20
101.3082003869993
 30
0.0
  0
SPLINE
  5
A4
330
3C
100
AcDbEntity
  8
Layer 1
 62
     7
370
    15
100
AcDbSpline
210
0.0
220
0.0
230
1.0
 70
     8
 71
     3
 72
     8
 73
     4
 74
     0
 42
0.0000000001
 43
0.0000000001
 40
0.0
 40
0.0
 40
0.0
 40
0.0
 40
1.0
 40
1.0
 40
1.0
 40
1.0
 10
304.7874253252788
 20
101.3082003869993
 30
0.0
 10
304.8556382158868
 20
101.3064778392567
 30
0.0
 10
304.9565795136046
 20
101.3054443106112
 30
0.0
 10
305.0909382375294
 20
101.3047552915141
 30
0.0
  0
SPLINE
  5
A5
330
3C
100
AcDbEntity
  8
Layer 1
 62
     7
370
    15
100
AcDbSpline
210
0.0
220
0.0
230
1.0
 70
     8
 71
     3
 72
     8
 73
     4
 74
     0
 42
0.0000000001
 43
0.0000000001
 40
0.0
 40
0.0
 40
0.0
 40
0.0
 40
1.0
 40
1.0
 40
1.0
 40
1.0
 10
305.0909382375294
 20
101.3047552915141
 30
0.0
 10
305.2252969614541
 20
101.304066272417
 30
0.0
 10
305.3942788950056
 20
101.304066272417
 30
0.0
 10
305.592716394956
 20
101.3030327437715
 30
0.0
  0
SPLINE
  5
A6
330
3C
100
AcDbEntity
  8
Layer 1
 62
     7
370
    15
100
AcDbSpline
210
0.0
220
0.0
230
1.0
 70
     8
 71
     3
 72
     8
 73
     4
 74
     0
 42
0.0000000001
 43
0.0000000001
 40
0.0
 40
0.0
 40
0.0
 40
0.0
 40
1.0
 40
1.0
 40
1.0
 40
1.0
 10
305.592716394956
 20
101.3030327437715
 30
0.0
 10
305.7906371305836
 20
101.3023437246744
 30
0.0
 10
306.0190469612557
 20
101.3023437246744
 30
0.0
 10
306.2769123583266
 20
101.3013101960288
 30
0.0
  0
SPLINE
  5
A7
330
3C
100
AcDbEntity
  8
Layer 1
 62
     7
370
    15
100
AcDbSpline
210
0.0
220
0.0
230
1.0
 70
     8
 71
     3
 72
     8
 73
     4
 74
     0
 42
0.0000000001
 43
0.0000000001
 40
0.0
 40
0.0
 40
0.0
 40
0.0
 40
1.0
 40
1.0
 40
1.0
 40
1.0
 10
306.2769123583266
 20
101.3013101960288
 30
0.0
 10
306.5347777553976
 20
101.3013101960288
 30
0.0
 10
306.8226154831902
 20
101.3006211769318
 30
0.0
 10
307.1404255417045
 20
101.3006211769318
 30
0.0
  0
SPLINE
  5
A8
330
3C
100
AcDbEntity
  8
Layer 1
 62
     7
370
    15
100
AcDbSpline
210
0.0
220
0.0
230
1.0
 70
     8
 71
     3
 72
     8
 73
     4
 74
     0
 42
0.0000000001
 43
0.0000000001
 40
0.0
 40
0.0
 40
0.0
 40
0.0
 40
1.0
 40
1.0
 40
1.0
 40
1.0
 10
307.1404255417045
 20
101.3006211769318
 30
0.0
 10
307.2997612078973
 20
101.3006211769318
 30
0.0
 10
307.4665038293834
 20
101.3006211769318
 30
0.0
 10
307.6387586036459
 20
101.2999321578347
 30
0.0
  0
SPLINE
  5
A9
330
3C
100
AcDbEntity
  8
Layer 1
 62
     7
370
    15
100
AcDbSpline
210
0.0
220
0.0
230
1.0
 70
    24
 71
     3
 72
     8
 73
     4
 74
     0
 42
0.0000000001
 43
0.0000000001
 40
0.0
 40
0.0
 40
0.0
 40
0.0
 40
1.0
 40
1.0
 40
1.0
 40
1.0
 10
307.6387586036459
 20
101.2999321578347
 30
0.0
 10
307.8113578874569
 20
101.2999321578347
 30
0.0
 10
307.9898138335928
 20
101.2999321578347
 30
0.0
 10
308.1736096777309
 20
101.2999321578347
 30
0.0
  0
SPLINE
  5
AA
330
3C
100
AcDbEntity
  8
Layer 1
 62
     7
370
    15
100
AcDbSpline
210
0.0
220
0.0
230
1.0
 70
     8
 71
     3
 72
     8
 73
     4
 74
     0
 42
0.0000000001
 43
0.0000000001
 40
0.0
 40
0.0
 40
0.0
 40
0.0
 40
1.0
 40
1.0
 40
1.0
 40
1.0
 10
308.1736096777309
 20
101.2999321578347
 30
0.0
 10
308.9103433472516
 20
101.2988986291892
 30
0.0
 10
309.7385443019057
 20
101.2988986291892
 30
0.0
 10
310.6614853824041
 20
101.2988986291892
 30
0.0
  0
SPLINE
  5
AB
330
3C
100
AcDbEntity
  8
Layer 1
 62
     7
370
    15
100
AcDbSpline
210
0.0
220
0.0
230
1.0
 70
     8
 71
     3
 72
     8
 73
     4
 74
     0
 42
0.0000000001
 43
0.0000000001
 40
0.0
 40
0.0
 40
0.0
 40
0.0
 40
1.0
 40
1.0
 40
1.0
 40
1.0
 10
310.6614853824041
 20
101.2988986291892
 30
0.0
 10
311.7925102302116
 20
101.2988986291892
 30
0.0
 10
313.01207403199
 20
101.2988986291892
 30
0.0
 10
314.3184542399968
 20
101.2999321578347
 30
0.0
  0
SPLINE
  5
AC
330
3C
100
AcDbEntity
  8
Layer 1
 62
     7
370
    15
100
AcDbSpline
210
0.0
220
0.0
230
1.0
 70
     8
 71
     3
 72
     8
 73
     4
 74
     0
 42
0.0000000001
 43
0.0000000001
 40
0.0
 40
0.0
 40
0.0
 40
0.0
 40
1.0
 40
1.0
 40
1.0
 40
1.0
 10
314.3184542399968
 20
101.2999321578347
 30
0.0
 10
314.9719888535487
 20
101.2999321578347
 30
0.0
 10
315.6327581676196
 20
101.2999321578347
 30
0.0
 10
316.3014512013066
 20
101.3006211769318
 30
0.0
  0
SPLINE
  5
AD
330
3C
100
AcDbEntity
  8
Layer 1
 62
     7
370
    15
100
AcDbSpline
210
0.0
220
0.0
230
1.0
 70
     8
 71
     3
 72
     8
 73
     4
 74
     0
 42
0.0000000001
 43
0.0000000001
 40
0.0
 40
0.0
 40
0.0
 40
0.0
 40
1.0
 40
1.0
 40
1.0
 40
1.0
 10
316.3014512013066
 20
101.3006211769318
 30
0.0
 10
316.9701442349936
 20
101.3006211769318
 30
0.0
 10
317.6460719691996
 20
101.3013101960288
 30
0.0
 10
318.3302679325702
 20
101.3013101960288
 30
0.0
  0
POLYLINE
  5
AE
330
3C
100
AcDbEntity
  8
Layer 1
 62
     7
370
    15
100
AcDb2dPolyline
 66
     1
 10
0.0
 20
0.0
 30
0.0
  0
VERTEX
  5
AF
330
AE
100
AcDbEntity
  8
Layer 1
 62
     7
370
    15
100
AcDbVertex
100
AcDb2dVertex
 10
545.3593043341463
 20
106.2853298345398
 30
0.0
  0
VERTEX
  5
B0
330
AE
100
AcDbEntity
  8
Layer 1
 62
     7
370
    15
100
AcDbVertex
100
AcDb2dVertex
 10
482.5266193455142
 20
103.7855685504425
 30
0.0
  0
VERTEX
  5
B1
330
AE
100
AcDbEntity
  8
Layer 1
 62
     7
370
    15
100
AcDbVertex
100
AcDb2dVertex
 10
419.9984807977782
 20
101.2988986291892
 30
0.0
  0
SEQEND
  5
B2
330
AE
100
AcDbEntity
  8
Layer 1
370
    15
  0
SPLINE
  5
B3
330
3C
100
AcDbEntity
  8
Layer 1
 62
     7
370
    15
100
AcDbSpline
210
0.0
220
0.0
230
1.0
 70
     8
 71
     3
 72
     8
 73
     4
 74
     0
 42
0.0000000001
 43
0.0000000001
 40
0.0
 40
0.0
 40
0.0
 40
0.0
 40
1.0
 40
1.0
 40
1.0
 40
1.0
 10
419.9984807977782
 20
101.2988986291892
 30
0.0
 10
418.8681449690677
 20
101.2988986291892
 30
0.0
 10
417.6485811672893
 20
101.2988986291892
 30
0.0
 10
416.3415119401855
 20
101.2999321578347
 30
0.0
  0
SPLINE
  5
B4
330
3C
100
AcDbEntity
  8
Layer 1
 62
     7
370
    15
100
AcDbSpline
210
0.0
220
0.0
230
1.0
 70
     8
 71
     3
 72
     8
 73
     4
 74
     0
 42
0.0000000001
 43
0.0000000001
 40
0.0
 40
0.0
 40
0.0
 40
0.0
 40
1.0
 40
1.0
 40
1.0
 40
1.0
 10
416.3415119401855
 20
101.2999321578347
 30
0.0
 10
415.6886663457306
 20
101.2999321578347
 30
0.0
 10
415.0272080125627
 20
101.2999321578347
 30
0.0
 10
414.3581704693271
 20
101.3006211769318
 30
0.0
  0
SPLINE
  5
B5
330
3C
100
AcDbEntity
  8
Layer 1
 62
     7
370
    15
100
AcDbSpline
210
0.0
220
0.0
230
1.0
 70
     8
 71
     3
 72
     8
 73
     4
 74
     0
 42
0.0000000001
 43
0.0000000001
 40
0.0
 40
0.0
 40
0.0
 40
0.0
 40
1.0
 40
1.0
 40
1.0
 40
1.0
 10
414.3581704693271
 20
101.3006211769318
 30
0.0
 10
413.6894774356401
 20
101.3006211769318
 30
0.0
 10
413.0138942109826
 20
101.3013101960288
 30
0.0
 10
412.3300427571606
 20
101.3013101960288
 30
0.0
  0
POLYLINE
  5
B6
330
3C
100
AcDbEntity
  8
Layer 1
 62
     7
370
    15
100
AcDb2dPolyline
 66
     1
 10
0.0
 20
0.0
 30
0.0
  0
VERTEX
  5
B7
330
B6
100
AcDbEntity
  8
Layer 1
 62
     7
370
    15
100
AcDbVertex
100
AcDb2dVertex
 10
318.3302679325702
 20
101.3013101960288
 30
0.0
  0
VERTEX
  5
B8
330
B6
100
AcDbEntity
  8
Layer 1
 62
     7
370
    15
100
AcDbVertex
100
AcDb2dVertex
 10
412.3300427571606
 20
101.3013101960288
 30
0.0
  0
SEQEND
  5
B9
330
B6
100
AcDbEntity
  8
Layer 1
370
    15
  0
SPLINE
  5
BA
330
3C
100
AcDbEntity
  8
Layer 1
 62
     7
370
    15
100
AcDbSpline
210
0.0
220
0.0
230
1.0
 70
     8
 71
     3
 72
     8
 73
     4
 74
     0
 42
0.0000000001
 43
0.0000000001
 40
0.0
 40
0.0
 40
0.0
 40
0.0
 40
1.0
 40
1.0
 40
1.0
 40
1.0
 10
425.9767549933322
 20
101.310611953839
 30
0.0
 10
425.9767549933322
 20
101.310611953839
 30
0.0
 10
425.9409260002856
 20
101.3088894060964
 30
0.0
 10
425.8727131096776
 20
101.3082003869993
 30
0.0
  0
SPLINE
  5
BB
330
3C
100
AcDbEntity
  8
Layer 1
 62
     7
370
    15
100
AcDbSpline
210
0.0
220
0.0
230
1.0
 70
     8
 71
     3
 72
     8
 73
     4
 74
     0
 42
0.0000000001
 43
0.0000000001
 40
0.0
 40
0.0
 40
0.0
 40
0.0
 40
1.0
 40
1.0
 40
1.0
 40
1.0
 10
425.8727131096776
 20
101.3082003869993
 30
0.0
 10
425.8045002190697
 20
101.3064778392567
 30
0.0
 10
425.7039034309004
 20
101.3054443106112
 30
0.0
 10
425.5688556878786
 20
101.3047552915141
 30
0.0
  0
SPLINE
  5
BC
330
3C
100
AcDbEntity
  8
Layer 1
 62
     7
370
    15
100
AcDbSpline
210
0.0
220
0.0
230
1.0
 70
     8
 71
     3
 72
     8
 73
     4
 74
     0
 42
0.0000000001
 43
0.0000000001
 40
0.0
 40
0.0
 40
0.0
 40
0.0
 40
1.0
 40
1.0
 40
1.0
 40
1.0
 10
425.5688556878786
 20
101.3047552915141
 30
0.0
 10
425.4341524544054
 20
101.304066272417
 30
0.0
 10
425.2660317947252
 20
101.304066272417
 30
0.0
 10
425.0672497852262
 20
101.3030327437715
 30
0.0
  0
SPLINE
  5
BD
330
3C
100
AcDbEntity
  8
Layer 1
 62
     7
370
    15
100
AcDbSpline
210
0.0
220
0.0
230
1.0
 70
     8
 71
     3
 72
     8
 73
     4
 74
     0
 42
0.0000000001
 43
0.0000000001
 40
0.0
 40
0.0
 40
0.0
 40
0.0
 40
1.0
 40
1.0
 40
1.0
 40
1.0
 10
425.0672497852262
 20
101.3030327437715
 30
0.0
 10
424.8695013043729
 20
101.3023437246744
 30
0.0
 10
424.6407469641524
 20
101.3023437246744
 30
0.0
 10
424.3827093123071
 20
101.3013101960288
 30
0.0
  0
SPLINE
  5
BE
330
3C
100
AcDbEntity
  8
Layer 1
 62
     7
370
    15
100
AcDbSpline
210
0.0
220
0.0
230
1.0
 70
     8
 71
     3
 72
     8
 73
     4
 74
     0
 42
0.0000000001
 43
0.0000000001
 40
0.0
 40
0.0
 40
0.0
 40
0.0
 40
1.0
 40
1.0
 40
1.0
 40
1.0
 10
424.3827093123071
 20
101.3013101960288
 30
0.0
 10
424.1246716604619
 20
101.3013101960288
 30
0.0
 10
423.8376952065406
 20
101.3006211769318
 30
0.0
 10
423.519023874155
 20
101.3006211769318
 30
0.0
  0
SPLINE
  5
BF
330
3C
100
AcDbEntity
  8
Layer 1
 62
     7
370
    15
100
AcDbSpline
210
0.0
220
0.0
230
1.0
 70
     8
 71
     3
 72
     8
 73
     4
 74
     0
 42
0.0000000001
 43
0.0000000001
 40
0.0
 40
0.0
 40
0.0
 40
0.0
 40
1.0
 40
1.0
 40
1.0
 40
1.0
 10
423.519023874155
 20
101.3006211769318
 30
0.0
 10
423.360204972285
 20
101.3006211769318
 30
0.0
 10
423.1931178412503
 20
101.3006211769318
 30
0.0
 10
423.0208630669879
 20
101.2999321578347
 30
0.0
  0
SPLINE
  5
C0
330
3C
100
AcDbEntity
  8
Layer 1
 62
     7
370
    15
100
AcDbSpline
210
0.0
220
0.0
230
1.0
 70
    24
 71
     3
 72
     8
 73
     4
 74
     0
 42
0.0000000001
 43
0.0000000001
 40
0.0
 40
0.0
 40
0.0
 40
0.0
 40
1.0
 40
1.0
 40
1.0
 40
1.0
 10
423.0208630669879
 20
101.2999321578347
 30
0.0
 10
422.8486082927254
 20
101.2999321578347
 30
0.0
 10
422.670496856138
 20
101.2999321578347
 30
0.0
 10
422.4858397381286
 20
101.2999321578347
 30
0.0
  0
SPLINE
  5
C1
330
3C
100
AcDbEntity
  8
Layer 1
 62
     7
370
    15
100
AcDbSpline
210
0.0
220
0.0
230
1.0
 70
     8
 71
     3
 72
     8
 73
     4
 74
     0
 42
0.0000000001
 43
0.0000000001
 40
0.0
 40
0.0
 40
0.0
 40
0.0
 40
1.0
 40
1.0
 40
1.0
 40
1.0
 10
422.4858397381286
 20
101.2999321578347
 30
0.0
 10
421.7496228329307
 20
101.2988986291892
 30
0.0
 10
420.9221108973737
 20
101.2988986291892
 30
0.0
 10
419.9984807977782
 20
101.2988986291892
 30
0.0
  0
POLYLINE
  5
C2
330
3C
100
AcDbEntity
  8
Layer 1
 62
     7
370
    15
100
AcDb2dPolyline
 66
     1
 10
0.0
 20
0.0
 30
0.0
  0
VERTEX
  5
C3
330
C2
100
AcDbEntity
  8
Layer 1
 62
     7
370
    15
100
AcDbVertex
100
AcDb2dVertex
 10
424.683810657718
 20
100.0169785991277
 30
0.0
  0
VERTEX
  5
C4
330
C2
100
AcDbEntity
  8
Layer 1
 62
     7
370
    15
100
AcDbVertex
100
AcDb2dVertex
 10
412.3300427571606
 20
100.0169785991277
 30
0.0
  0
SEQEND
  5
C5
330
C2
100
AcDbEntity
  8
Layer 1
370
    15
  0
POLYLINE
  5
C6
330
3C
100
AcDbEntity
  8
Layer 1
 62
     7
370
    15
100
AcDb2dPolyline
 66
     1
 10
0.0
 20
0.0
 30
0.0
  0
VERTEX
  5
C7
330
C6
100
AcDbEntity
  8
Layer 1
 62
     7
370
    15
100
AcDbVertex
100
AcDb2dVertex
 10
412.3300427571606
 20
100.0169785991277
 30
0.0
  0
VERTEX
  5
C8
330
C6
100
AcDbEntity
  8
Layer 1
 62
     7
370
    15
100
AcDbVertex
100
AcDb2dVertex
 10
412.3300427571606
 20
101.3013101960288
 30
0.0
  0
SEQEND
  5
C9
330
C6
100
AcDbEntity
  8
Layer 1
370
    15
  0
POLYLINE
  5
CA
330
3C
100
AcDbEntity
  8
Layer 1
 62
     7
370
    15
100
AcDb2dPolyline
 66
     1
 10
0.0
 20
0.0
 30
0.0
  0
VERTEX
  5
CB
330
CA
100
AcDbEntity
  8
Layer 1
 62
     7
370
    15
100
AcDbVertex
100
AcDb2dVertex
 10
424.683810657718
 20
100.0169785991277
 30
0.0
  0
VERTEX
  5
CC
330
CA
100
AcDbEntity
  8
Layer 1
 62
     7
370
    15
100
AcDbVertex
100
AcDb2dVertex
 10
425.9767549933322
 20
101.310611953839
 30
0.0
  0
SEQEND
  5
CD
330
CA
100
AcDbEntity
  8
Layer 1
370
    15
  0
POLYLINE
  5
CE
330
3C
100
AcDbEntity
  8
Layer 1
 62
     7
370
    15
100
AcDb2dPolyline
 66
     1
 10
0.0
 20
0.0
 30
0.0
  0
VERTEX
  5
CF
330
CE
100
AcDbEntity
  8
Layer 1
 62
     7
370
    15
100
AcDbVertex
100
AcDb2dVertex
 10
318.3302679325702
 20
100.0169785991277
 30
0.0
  0
VERTEX
  5
D0
330
CE
100
AcDbEntity
  8
Layer 1
 62
     7
370
    15
100
AcDbVertex
100
AcDb2dVertex
 10
305.9765000320128
 20
100.0169785991277
 30
0.0
  0
SEQEND
  5
D1
330
CE
100
AcDbEntity
  8
Layer 1
370
    15
  0
POLYLINE
  5
D2
330
3C
100
AcDbEntity
  8
Layer 1
 62
     7
370
    15
100
AcDb2dPolyline
 66
     1
 10
0.0
 20
0.0
 30
0.0
  0
VERTEX
  5
D3
330
D2
100
AcDbEntity
  8
Layer 1
 62
     7
370
    15
100
AcDbVertex
100
AcDb2dVertex
 10
305.9765000320128
 20
100.0169785991277
 30
0.0
  0
VERTEX
  5
D4
330
D2
100
AcDbEntity
  8
Layer 1
 62
     7
370
    15
100
AcDbVertex
100
AcDb2dVertex
 10
304.6830389320758
 20
101.310611953839
 30
0.0
  0
SEQEND
  5
D5
330
D2
100
AcDbEntity
  8
Layer 1
370
    15
  0
POLYLINE
  5
D6
330
3C
100
AcDbEntity
  8
Layer 1
 62
     7
370
    15
100
AcDb2dPolyline
 66
     1
 10
0.0
 20
0.0
 30
0.0
  0
VERTEX
  5
D7
330
D6
100
AcDbEntity
  8
Layer 1
 62
     7
370
    15
100
AcDbVertex
100
AcDb2dVertex
 10
318.3302679325702
 20
100.0169785991277
 30
0.0
  0
VERTEX
  5
D8
330
D6
100
AcDbEntity
  8
Layer 1
 62
     7
370
    15
100
AcDbVertex
100
AcDb2dVertex
 10
318.3302679325702
 20
101.3013101960288
 30
0.0
  0
SEQEND
  5
D9
330
D6
100
AcDbEntity
  8
Layer 1
370
    15
  0
POLYLINE
  5
DA
330
3C
100
AcDbEntity
  8
Layer 1
 62
     7
370
    15
100
AcDb2dPolyline
 66
     1
 10
0.0
 20
0.0
 30
0.0
  0
VERTEX
  5
DB
330
DA
100
AcDbEntity
  8
Layer 1
 62
     7
370
    15
100
AcDbVertex
100
AcDb2dVertex
 10
412.3300427571606
 20
100.0169785991277
 30
0.0
  0
VERTEX
  5
DC
330
DA
100
AcDbEntity
  8
Layer 1
 62
     7
370
    15
100
AcDbVertex
100
AcDb2dVertex
 10
318.3302679325702
 20
100.0169785991277
 30
0.0
  0
SEQEND
  5
DD
330
DA
100
AcDbEntity
  8
Layer 1
370
    15
  0
POLYLINE
  5
DE
330
3C
100
AcDbEntity
  8
Layer 1
 62
     7
370
    15
100
AcDb2dPolyline
 66
     1
 10
0.0
 20
0.0
 30
0.0
  0
VERTEX
  5
DF
330
DE
100
AcDbEntity
  8
Layer 1
 62
     7
370
    15
100
AcDbVertex
100
AcDb2dVertex
 10
412.3300427571606
 20
99.28489580851212
 30
0.0
  0
VERTEX
  5
E0
330
DE
100
AcDbEntity
  8
Layer 1
 62
     7
370
    15
100
AcDbVertex
100
AcDb2dVertex
 10
412.3300427571606
 20
100.0169785991277
 30
0.0
  0
SEQEND
  5
E1
330
DE
100
AcDbEntity
  8
Layer 1
370
    15
  0
POLYLINE
  5
E2
330
3C
100
AcDbEntity
  8
Layer 1
 62
     7
370
    15
100
AcDb2dPolyline
 66
     1
 10
0.0
 20
0.0
 30
0.0
  0
VERTEX
  5
E3
330
E2
100
AcDbEntity
  8
Layer 1
 62
     7
370
    15
100
AcDbVertex
100
AcDb2dVertex
 10
318.3302679325702
 20
99.28489580851212
 30
0.0
  0
VERTEX
  5
E4
330
E2
100
AcDbEntity
  8
Layer 1
 62
     7
370
    15
100
AcDbVertex
100
AcDb2dVertex
 10
412.3300427571606
 20
99.28489580851212
 30
0.0
  0
SEQEND
  5
E5
330
E2
100
AcDbEntity
  8
Layer 1
370
    15
  0
POLYLINE
  5
E6
330
3C
100
AcDbEntity
  8
Layer 1
 62
     7
370
    15
100
AcDb2dPolyline
 66
     1
 10
0.0
 20
0.0
 30
0.0
  0
VERTEX
  5
E7
330
E6
100
AcDbEntity
  8
Layer 1
 62
     7
370
    15
100
AcDbVertex
100
AcDb2dVertex
 10
318.3302679325702
 20
99.28489580851212
 30
0.0
  0
VERTEX
  5
E8
330
E6
100
AcDbEntity
  8
Layer 1
 62
     7
370
    15
100
AcDbVertex
100
AcDb2dVertex
 10
318.3302679325702
 20
100.0169785991277
 30
0.0
  0
SEQEND
  5
E9
330
E6
100
AcDbEntity
  8
Layer 1
370
    15
  0
POLYLINE
  5
EA
330
3C
100
AcDbEntity
  8
Layer 1
 62
     7
370
    15
100
AcDb2dPolyline
 66
     1
 10
0.0
 20
0.0
 30
0.0
  0
VERTEX
  5
EB
330
EA
100
AcDbEntity
  8
Layer 1
 62
     7
370
    15
100
AcDbVertex
100
AcDb2dVertex
 10
307.7443507802688
 20
99.28489580851212
 30
0.0
  0
VERTEX
  5
EC
330
EA
100
AcDbEntity
  8
Layer 1
 62
     7
370
    15
100
AcDbVertex
100
AcDb2dVertex
 10
318.3302679325702
 20
99.28489580851212
 30
0.0
  0
SEQEND
  5
ED
330
EA
100
AcDbEntity
  8
Layer 1
370
    15
  0
SPLINE
  5
EE
330
3C
100
AcDbEntity
  8
Layer 1
 62
     7
370
    15
100
AcDbSpline
210
0.0
220
0.0
230
1.0
 70
     8
 71
     3
 72
     8
 73
     4
 74
     0
 42
0.0000000001
 43
0.0000000001
 40
0.0
 40
0.0
 40
0.0
 40
0.0
 40
1.0
 40
1.0
 40
1.0
 40
1.0
 10
305.9765000320128
 20
100.0169785991277
 30
0.0
 10
306.4453775275553
 20
99.54879012268225
 30
0.0
 10
307.0813421541325
 20
99.28489580851212
 30
0.0
 10
307.7443507802688
 20
99.28489580851212
 30
0.0
  0
SPLINE
  5
EF
330
3C
100
AcDbEntity
  8
Layer 1
 62
     7
370
    15
100
AcDbSpline
210
0.0
220
0.0
230
1.0
 70
     8
 71
     3
 72
     8
 73
     4
 74
     0
 42
0.0000000001
 43
0.0000000001
 40
0.0
 40
0.0
 40
0.0
 40
0.0
 40
1.0
 40
1.0
 40
1.0
 40
1.0
 10
422.9161321642363
 20
99.28489580851212
 30
0.0
 10
423.5789685355983
 20
99.28489580851212
 30
0.0
 10
424.2145886526269
 20
99.54879012268225
 30
0.0
 10
424.683810657718
 20
100.0169785991277
 30
0.0
  0
POLYLINE
  5
F0
330
3C
100
AcDbEntity
  8
Layer 1
 62
     7
370
    15
100
AcDb2dPolyline
 66
     1
 10
0.0
 20
0.0
 30
0.0
  0
VERTEX
  5
F1
330
F0
100
AcDbEntity
  8
Layer 1
 62
     7
370
    15
100
AcDbVertex
100
AcDb2dVertex
 10
412.3300427571606
 20
99.28489580851212
 30
0.0
  0
VERTEX
  5
F2
330
F0
100
AcDbEntity
  8
Layer 1
 62
     7
370
    15
100
AcDbVertex
100
AcDb2dVertex
 10
422.9161321642363
 20
99.28489580851212
 30
0.0
  0
SEQEND
  5
F3
330
F0
100
AcDbEntity
  8
Layer 1
370
    15
  0
POLYLINE
  5
F4
330
3C
100
AcDbEntity
  8
Layer 1
 62
     7
370
    15
100
AcDb2dPolyline
 66
     1
 10
0.0
 20
0.0
 30
0.0
  0
VERTEX
  5
F5
330
F4
100
AcDbEntity
  8
Layer 1
 62
     7
370
    15
100
AcDbVertex
100
AcDb2dVertex
 10
424.683810657718
 20
100.0169785991277
 30
0.0
  0
VERTEX
  5
F6
330
F4
100
AcDbEntity
  8
Layer 1
 62
     7
370
    15
100
AcDbVertex
100
AcDb2dVertex
 10
424.683810657718
 20
100.0176676182247
 30
0.0
  0
SEQEND
  5
F7
330
F4
100
AcDbEntity
  8
Layer 1
370
    15
  0
POLYLINE
  5
F8
330
3C
100
AcDbEntity
  8
Layer 1
370
     0
100
AcDb2dPolyline
 66
     1
 10
0.0
 20
0.0
 30
0.0
  0
VERTEX
  5
F9
330
F8
100
AcDbEntity
  8
Layer 1
370
     0
100
AcDbVertex
100
AcDb2dVertex
 10
-19.66942816348542
 20
332.7845105504845
 30
0.0
  0
VERTEX
  5
FA
330
F8
100
AcDbEntity
  8
Layer 1
370
     0
100
AcDbVertex
100
AcDb2dVertex
 10
-24.66963975077704
 20
362.7847465455886
 30
0.0
  0
VERTEX
  5
FB
330
F8
100
AcDbEntity
  8
Layer 1
370
     0
100
AcDbVertex
100
AcDb2dVertex
 10
-14.6697333405166
 20
362.7847465455886
 30
0.0
  0
SEQEND
  5
FC
330
F8
100
AcDbEntity
  8
Layer 1
370
     0
  0
HATCH
  5
FD
330
3C
100
AcDbEntity
  8
Layer 1
 62
     7
100
AcDbHatch
 10
0.0
 20
0.0
 30
0.0
210
0.0
220
0.0
230
1.0
  2
SOLID
 70
     1
 71
     0
 91
        1
 92
        1
 93
        3
 72
     1
 10
-19.66942816348542
 20
332.7845105504845
 11
-24.66963975077704
 21
362.7847465455886
 72
     1
 10
-24.66963975077704
 20
362.7847465455886
 11
-14.6697333405166
 21
362.7847465455886
 72
     1
 10
-14.6697333405166
 20
362.7847465455886
 11
-19.66942816348542
 21
332.7845105504845
 97
        0
 75
     2
 76
     1
 98
        0
  0
POLYLINE
  5
FE
330
3C
100
AcDbEntity
  8
Layer 1
370
     0
100
AcDb2dPolyline
 66
     1
 10
0.0
 20
0.0
 30
0.0
  0
VERTEX
  5
FF
330
FE
100
AcDbEntity
  8
Layer 1
370
     0
100
AcDbVertex
100
AcDb2dVertex
 10
-19.66942816348542
 20
106.2853298345398
 30
0.0
  0
VERTEX
  5
100
330
FE
100
AcDbEntity
  8
Layer 1
370
     0
100
AcDbVertex
100
AcDb2dVertex
 10
-14.6697333405166
 20
76.2854383489842
 30
0.0
  0
VERTEX
  5
101
330
FE
100
AcDbEntity
  8
Layer 1
370
     0
100
AcDbVertex
100
AcDb2dVertex
 10
-24.66963975077704
 20
76.2854383489842
 30
0.0
  0
SEQEND
  5
102
330
FE
100
AcDbEntity
  8
Layer 1
370
     0
  0
HATCH
  5
103
330
3C
100
AcDbEntity
  8
Layer 1
 62
     7
100
AcDbHatch
 10
0.0
 20
0.0
 30
0.0
210
0.0
220
0.0
230
1.0
  2
SOLID
 70
     1
 71
     0
 91
        1
 92
        1
 93
        3
 72
     1
 10
-19.66942816348542
 20
106.2853298345398
 11
-14.6697333405166
 21
76.2854383489842
 72
     1
 10
-14.6697333405166
 20
76.2854383489842
 11
-24.66963975077704
 21
76.2854383489842
 72
     1
 10
-24.66963975077704
 20
76.2854383489842
 11
-19.66942816348542
 21
106.2853298345398
 97
        0
 75
     2
 76
     1
 98
        0
  0
POLYLINE
  5
104
330
3C
100
AcDbEntity
  8
Layer 1
 62
     7
370
    25
100
AcDb2dPolyline
 66
     1
 10
0.0
 20
0.0
 30
0.0
  0
VERTEX
  5
105
330
104
100
AcDbEntity
  8
Layer 1
 62
     7
370
    25
100
AcDbVertex
100
AcDb2dVertex
 10
108.5480685492519
 20
332.7845105504845
 30
0.0
  0
VERTEX
  5
106
330
104
100
AcDbEntity
  8
Layer 1
 62
     7
370
    25
100
AcDbVertex
100
AcDb2dVertex
 10
-29.66967908329439
 20
332.7845105504845
 30
0.0
  0
SEQEND
  5
107
330
104
100
AcDbEntity
  8
Layer 1
370
    25
  0
POLYLINE
  5
108
330
3C
100
AcDbEntity
  8
Layer 1
 62
     7
370
    25
100
AcDb2dPolyline
 66
     1
 10
0.0
 20
0.0
 30
0.0
  0
VERTEX
  5
109
330
108
100
AcDbEntity
  8
Layer 1
 62
     7
370
    25
100
AcDbVertex
100
AcDb2dVertex
 10
109.0896375595331
 20
106.2853298345398
 30
0.0
  0
VERTEX
  5
10A
330
108
100
AcDbEntity
  8
Layer 1
 62
     7
370
    25
100
AcDbVertex
100
AcDb2dVertex
 10
-29.66967908329439
 20
106.2853298345398
 30
0.0
  0
SEQEND
  5
10B
330
108
100
AcDbEntity
  8
Layer 1
370
    25
  0
POLYLINE
  5
10C
330
3C
100
AcDbEntity
  8
Layer 1
 62
     7
370
    25
100
AcDb2dPolyline
 66
     1
 10
0.0
 20
0.0
 30
0.0
  0
VERTEX
  5
10D
330
10C
100
AcDbEntity
  8
Layer 1
 62
     7
370
    25
100
AcDbVertex
100
AcDb2dVertex
 10
-19.66942816348542
 20
332.7845105504845
 30
0.0
  0
VERTEX
  5
10E
330
10C
100
AcDbEntity
  8
Layer 1
 62
     7
370
    25
100
AcDbVertex
100
AcDb2dVertex
 10
-19.66942816348542
 20
392.7846380311441
 30
0.0
  0
SEQEND
  5
10F
330
10C
100
AcDbEntity
  8
Layer 1
370
    25
  0
POLYLINE
  5
110
330
3C
100
AcDbEntity
  8
Layer 1
 62
     7
370
    25
100
AcDb2dPolyline
 66
     1
 10
0.0
 20
0.0
 30
0.0
  0
VERTEX
  5
111
330
110
100
AcDbEntity
  8
Layer 1
 62
     7
370
    25
100
AcDbVertex
100
AcDb2dVertex
 10
-19.66942816348542
 20
332.7845105504845
 30
0.0
  0
VERTEX
  5
112
330
110
100
AcDbEntity
  8
Layer 1
 62
     7
370
    25
100
AcDbVertex
100
AcDb2dVertex
 10
-19.66942816348542
 20
106.2853298345398
 30
0.0
  0
SEQEND
  5
113
330
110
100
AcDbEntity
  8
Layer 1
370
    25
  0
POLYLINE
  5
114
330
3C
100
AcDbEntity
  8
Layer 1
 62
     7
370
    25
100
AcDb2dPolyline
 66
     1
 10
0.0
 20
0.0
 30
0.0
  0
VERTEX
  5
115
330
114
100
AcDbEntity
  8
Layer 1
 62
     7
370
    25
100
AcDbVertex
100
AcDb2dVertex
 10
-19.66942816348542
 20
106.2853298345398
 30
0.0
  0
VERTEX
  5
116
330
114
100
AcDbEntity
  8
Layer 1
 62
     7
370
    25
100
AcDbVertex
100
AcDb2dVertex
 10
-19.66942816348542
 20
46.28520235388009
 30
0.0
  0
SEQEND
  5
117
330
114
100
AcDbEntity
  8
Layer 1
370
    25
  0
POLYLINE
  5
118
330
3C
100
AcDbEntity
  8
Layer 1
 62
     7
370
    25
100
AcDb2dPolyline
 66
     1
 10
0.0
 20
0.0
 30
0.0
  0
VERTEX
  5
119
330
118
100
AcDbEntity
  8
Layer 1
 62
     7
370
    25
100
AcDbVertex
100
AcDb2dVertex
 10
-67.18435735082544
 20
155.447531428152
 30
0.0
  0
VERTEX
  5
11A
330
118
100
AcDbEntity
  8
Layer 1
 62
     7
370
    25
100
AcDbVertex
100
AcDb2dVertex
 10
-74.24008515939137
 20
160.7391980934958
 30
0.0
  0
SEQEND
  5
11B
330
118
100
AcDbEntity
  8
Layer 1
370
    25
  0
POLYLINE
  5
11C
330
3C
100
AcDbEntity
  8
Layer 1
 62
     7
370
    25
100
AcDb2dPolyline
 66
     1
 10
0.0
 20
0.0
 30
0.0
  0
VERTEX
  5
11D
330
11C
100
AcDbEntity
  8
Layer 1
 62
     7
370
    25
100
AcDbVertex
100
AcDb2dVertex
 10
-74.24008515939137
 20
160.7391980934958
 30
0.0
  0
VERTEX
  5
11E
330
11C
100
AcDbEntity
  8
Layer 1
 62
     7
370
    25
100
AcDbVertex
100
AcDb2dVertex
 10
-74.24008515939137
 20
171.3218424050862
 30
0.0
  0
SEQEND
  5
11F
330
11C
100
AcDbEntity
  8
Layer 1
370
    25
  0
POLYLINE
  5
120
330
3C
100
AcDbEntity
  8
Layer 1
 62
     7
370
    25
100
AcDb2dPolyline
 66
     1
 10
0.0
 20
0.0
 30
0.0
  0
VERTEX
  5
121
330
120
100
AcDbEntity
  8
Layer 1
 62
     7
370
    25
100
AcDbVertex
100
AcDb2dVertex
 10
-74.24008515939137
 20
171.3218424050862
 30
0.0
  0
VERTEX
  5
122
330
120
100
AcDbEntity
  8
Layer 1
 62
     7
370
    25
100
AcDbVertex
100
AcDb2dVertex
 10
-67.18435735082544
 20
176.61350907043
 30
0.0
  0
SEQEND
  5
123
330
120
100
AcDbEntity
  8
Layer 1
370
    25
  0
POLYLINE
  5
124
330
3C
100
AcDbEntity
  8
Layer 1
 62
     7
370
    25
100
AcDb2dPolyline
 66
     1
 10
0.0
 20
0.0
 30
0.0
  0
VERTEX
  5
125
330
124
100
AcDbEntity
  8
Layer 1
 62
     7
370
    25
100
AcDbVertex
100
AcDb2dVertex
 10
-67.18435735082544
 20
176.61350907043
 30
0.0
  0
VERTEX
  5
126
330
124
100
AcDbEntity
  8
Layer 1
 62
     7
370
    25
100
AcDbVertex
100
AcDb2dVertex
 10
-60.12897405180804
 20
176.61350907043
 30
0.0
  0
SEQEND
  5
127
330
124
100
AcDbEntity
  8
Layer 1
370
    25
  0
POLYLINE
  5
128
330
3C
100
AcDbEntity
  8
Layer 1
 62
     7
370
    25
100
AcDb2dPolyline
 66
     1
 10
0.0
 20
0.0
 30
0.0
  0
VERTEX
  5
129
330
128
100
AcDbEntity
  8
Layer 1
 62
     7
370
    25
100
AcDbVertex
100
AcDb2dVertex
 10
-60.12897405180804
 20
176.61350907043
 30
0.0
  0
VERTEX
  5
12A
330
128
100
AcDbEntity
  8
Layer 1
 62
     7
370
    25
100
AcDbVertex
100
AcDb2dVertex
 10
-53.07359075279063
 20
171.3218424050862
 30
0.0
  0
SEQEND
  5
12B
330
128
100
AcDbEntity
  8
Layer 1
370
    25
  0
POLYLINE
  5
12C
330
3C
100
AcDbEntity
  8
Layer 1
 62
     7
370
    25
100
AcDb2dPolyline
 66
     1
 10
0.0
 20
0.0
 30
0.0
  0
VERTEX
  5
12D
330
12C
100
AcDbEntity
  8
Layer 1
 62
     7
370
    25
100
AcDbVertex
100
AcDb2dVertex
 10
-53.07359075279063
 20
171.3218424050862
 30
0.0
  0
VERTEX
  5
12E
330
12C
100
AcDbEntity
  8
Layer 1
 62
     7
370
    25
100
AcDbVertex
100
AcDb2dVertex
 10
-53.07359075279063
 20
160.7391980934958
 30
0.0
  0
SEQEND
  5
12F
330
12C
100
AcDbEntity
  8
Layer 1
370
    25
  0
POLYLINE
  5
130
330
3C
100
AcDbEntity
  8
Layer 1
 62
     7
370
    25
100
AcDb2dPolyline
 66
     1
 10
0.0
 20
0.0
 30
0.0
  0
VERTEX
  5
131
330
130
100
AcDbEntity
  8
Layer 1
 62
     7
370
    25
100
AcDbVertex
100
AcDb2dVertex
 10
-53.07359075279063
 20
160.7391980934958
 30
0.0
  0
VERTEX
  5
132
330
130
100
AcDbEntity
  8
Layer 1
 62
     7
370
    25
100
AcDbVertex
100
AcDb2dVertex
 10
-46.0178629442247
 20
155.447531428152
 30
0.0
  0
SEQEND
  5
133
330
130
100
AcDbEntity
  8
Layer 1
370
    25
  0
POLYLINE
  5
134
330
3C
100
AcDbEntity
  8
Layer 1
 62
     7
370
    25
100
AcDb2dPolyline
 66
     1
 10
0.0
 20
0.0
 30
0.0
  0
VERTEX
  5
135
330
134
100
AcDbEntity
  8
Layer 1
 62
     7
370
    25
100
AcDbVertex
100
AcDb2dVertex
 10
-46.0178629442247
 20
155.447531428152
 30
0.0
  0
VERTEX
  5
136
330
134
100
AcDbEntity
  8
Layer 1
 62
     7
370
    25
100
AcDbVertex
100
AcDb2dVertex
 10
-31.90675183664137
 20
155.447531428152
 30
0.0
  0
SEQEND
  5
137
330
134
100
AcDbEntity
  8
Layer 1
370
    25
  0
POLYLINE
  5
138
330
3C
100
AcDbEntity
  8
Layer 1
 62
     7
370
    25
100
AcDb2dPolyline
 66
     1
 10
0.0
 20
0.0
 30
0.0
  0
VERTEX
  5
139
330
138
100
AcDbEntity
  8
Layer 1
 62
     7
370
    25
100
AcDbVertex
100
AcDb2dVertex
 10
-31.90675183664137
 20
155.447531428152
 30
0.0
  0
VERTEX
  5
13A
330
138
100
AcDbEntity
  8
Layer 1
 62
     7
370
    25
100
AcDbVertex
100
AcDb2dVertex
 10
-31.90675183664137
 20
176.61350907043
 30
0.0
  0
SEQEND
  5
13B
330
138
100
AcDbEntity
  8
Layer 1
370
    25
  0
POLYLINE
  5
13C
330
3C
100
AcDbEntity
  8
Layer 1
 62
     7
370
    25
100
AcDb2dPolyline
 66
     1
 10
0.0
 20
0.0
 30
0.0
  0
VERTEX
  5
13D
330
13C
100
AcDbEntity
  8
Layer 1
 62
     7
370
    25
100
AcDbVertex
100
AcDb2dVertex
 10
-67.18435735082544
 20
187.1968424011175
 30
0.0
  0
VERTEX
  5
13E
330
13C
100
AcDbEntity
  8
Layer 1
 62
     7
370
    25
100
AcDbVertex
100
AcDb2dVertex
 10
-74.24008515939137
 20
192.4885090664612
 30
0.0
  0
SEQEND
  5
13F
330
13C
100
AcDbEntity
  8
Layer 1
370
    25
  0
POLYLINE
  5
140
330
3C
100
AcDbEntity
  8
Layer 1
 62
     7
370
    25
100
AcDb2dPolyline
 66
     1
 10
0.0
 20
0.0
 30
0.0
  0
VERTEX
  5
141
330
140
100
AcDbEntity
  8
Layer 1
 62
     7
370
    25
100
AcDbVertex
100
AcDb2dVertex
 10
-74.24008515939137
 20
192.4885090664612
 30
0.0
  0
VERTEX
  5
142
330
140
100
AcDbEntity
  8
Layer 1
 62
     7
370
    25
100
AcDbVertex
100
AcDb2dVertex
 10
-74.24008515939137
 20
203.0721869066973
 30
0.0
  0
SEQEND
  5
143
330
140
100
AcDbEntity
  8
Layer 1
370
    25
  0
POLYLINE
  5
144
330
3C
100
AcDbEntity
  8
Layer 1
 62
     7
370
    25
100
AcDb2dPolyline
 66
     1
 10
0.0
 20
0.0
 30
0.0
  0
VERTEX
  5
145
330
144
100
AcDbEntity
  8
Layer 1
 62
     7
370
    25
100
AcDbVertex
100
AcDb2dVertex
 10
-74.24008515939137
 20
203.0721869066973
 30
0.0
  0
VERTEX
  5
146
330
144
100
AcDbEntity
  8
Layer 1
 62
     7
370
    25
100
AcDbVertex
100
AcDb2dVertex
 10
-67.18435735082544
 20
208.363853572041
 30
0.0
  0
SEQEND
  5
147
330
144
100
AcDbEntity
  8
Layer 1
370
    25
  0
POLYLINE
  5
148
330
3C
100
AcDbEntity
  8
Layer 1
 62
     7
370
    25
100
AcDb2dPolyline
 66
     1
 10
0.0
 20
0.0
 30
0.0
  0
VERTEX
  5
149
330
148
100
AcDbEntity
  8
Layer 1
 62
     7
370
    25
100
AcDbVertex
100
AcDb2dVertex
 10
-67.18435735082544
 20
208.363853572041
 30
0.0
  0
VERTEX
  5
14A
330
148
100
AcDbEntity
  8
Layer 1
 62
     7
370
    25
100
AcDbVertex
100
AcDb2dVertex
 10
-60.12897405180804
 20
208.363853572041
 30
0.0
  0
SEQEND
  5
14B
330
148
100
AcDbEntity
  8
Layer 1
370
    25
  0
POLYLINE
  5
14C
330
3C
100
AcDbEntity
  8
Layer 1
 62
     7
370
    25
100
AcDb2dPolyline
 66
     1
 10
0.0
 20
0.0
 30
0.0
  0
VERTEX
  5
14D
330
14C
100
AcDbEntity
  8
Layer 1
 62
     7
370
    25
100
AcDbVertex
100
AcDb2dVertex
 10
-60.12897405180804
 20
208.363853572041
 30
0.0
  0
VERTEX
  5
14E
330
14C
100
AcDbEntity
  8
Layer 1
 62
     7
370
    25
100
AcDbVertex
100
AcDb2dVertex
 10
-53.07359075279063
 20
203.0721869066973
 30
0.0
  0
SEQEND
  5
14F
330
14C
100
AcDbEntity
  8
Layer 1
370
    25
  0
POLYLINE
  5
150
330
3C
100
AcDbEntity
  8
Layer 1
 62
     7
370
    25
100
AcDb2dPolyline
 66
     1
 10
0.0
 20
0.0
 30
0.0
  0
VERTEX
  5
151
330
150
100
AcDbEntity
  8
Layer 1
 62
     7
370
    25
100
AcDbVertex
100
AcDb2dVertex
 10
-53.07359075279063
 20
203.0721869066973
 30
0.0
  0
VERTEX
  5
152
330
150
100
AcDbEntity
  8
Layer 1
 62
     7
370
    25
100
AcDbVertex
100
AcDb2dVertex
 10
-53.07359075279063
 20
192.4885090664612
 30
0.0
  0
SEQEND
  5
153
330
150
100
AcDbEntity
  8
Layer 1
370
    25
  0
POLYLINE
  5
154
330
3C
100
AcDbEntity
  8
Layer 1
 62
     7
370
    25
100
AcDb2dPolyline
 66
     1
 10
0.0
 20
0.0
 30
0.0
  0
VERTEX
  5
155
330
154
100
AcDbEntity
  8
Layer 1
 62
     7
370
    25
100
AcDbVertex
100
AcDb2dVertex
 10
-53.07359075279063
 20
192.4885090664612
 30
0.0
  0
VERTEX
  5
156
330
154
100
AcDbEntity
  8
Layer 1
 62
     7
370
    25
100
AcDbVertex
100
AcDb2dVertex
 10
-46.0178629442247
 20
187.1968424011175
 30
0.0
  0
SEQEND
  5
157
330
154
100
AcDbEntity
  8
Layer 1
370
    25
  0
POLYLINE
  5
158
330
3C
100
AcDbEntity
  8
Layer 1
 62
     7
370
    25
100
AcDb2dPolyline
 66
     1
 10
0.0
 20
0.0
 30
0.0
  0
VERTEX
  5
159
330
158
100
AcDbEntity
  8
Layer 1
 62
     7
370
    25
100
AcDbVertex
100
AcDb2dVertex
 10
-46.0178629442247
 20
187.1968424011175
 30
0.0
  0
VERTEX
  5
15A
330
158
100
AcDbEntity
  8
Layer 1
 62
     7
370
    25
100
AcDbVertex
100
AcDb2dVertex
 10
-31.90675183664137
 20
187.1968424011175
 30
0.0
  0
SEQEND
  5
15B
330
158
100
AcDbEntity
  8
Layer 1
370
    25
  0
POLYLINE
  5
15C
330
3C
100
AcDbEntity
  8
Layer 1
 62
     7
370
    25
100
AcDb2dPolyline
 66
     1
 10
0.0
 20
0.0
 30
0.0
  0
VERTEX
  5
15D
330
15C
100
AcDbEntity
  8
Layer 1
 62
     7
370
    25
100
AcDbVertex
100
AcDb2dVertex
 10
-31.90675183664137
 20
187.1968424011175
 30
0.0
  0
VERTEX
  5
15E
330
15C
100
AcDbEntity
  8
Layer 1
 62
     7
370
    25
100
AcDbVertex
100
AcDb2dVertex
 10
-31.90675183664137
 20
208.363853572041
 30
0.0
  0
SEQEND
  5
15F
330
15C
100
AcDbEntity
  8
Layer 1
370
    25
  0
POLYLINE
  5
160
330
3C
100
AcDbEntity
  8
Layer 1
 62
     7
370
    25
100
AcDb2dPolyline
 66
     1
 10
0.0
 20
0.0
 30
0.0
  0
VERTEX
  5
161
330
160
100
AcDbEntity
  8
Layer 1
 62
     7
370
    25
100
AcDbVertex
100
AcDb2dVertex
 10
-38.96196288088451
 20
218.9471869027285
 30
0.0
  0
VERTEX
  5
162
330
160
100
AcDbEntity
  8
Layer 1
 62
     7
370
    25
100
AcDbVertex
100
AcDb2dVertex
 10
-31.90675183664137
 20
224.2388535680722
 30
0.0
  0
SEQEND
  5
163
330
160
100
AcDbEntity
  8
Layer 1
370
    25
  0
POLYLINE
  5
164
330
3C
100
AcDbEntity
  8
Layer 1
 62
     7
370
    25
100
AcDb2dPolyline
 66
     1
 10
0.0
 20
0.0
 30
0.0
  0
VERTEX
  5
165
330
164
100
AcDbEntity
  8
Layer 1
 62
     7
370
    25
100
AcDbVertex
100
AcDb2dVertex
 10
-31.90675183664137
 20
224.2388535680722
 30
0.0
  0
VERTEX
  5
166
330
164
100
AcDbEntity
  8
Layer 1
 62
     7
370
    25
100
AcDbVertex
100
AcDb2dVertex
 10
-31.90675183664137
 20
234.8225314083083
 30
0.0
  0
SEQEND
  5
167
330
164
100
AcDbEntity
  8
Layer 1
370
    25
  0
POLYLINE
  5
168
330
3C
100
AcDbEntity
  8
Layer 1
 62
     7
370
    25
100
AcDb2dPolyline
 66
     1
 10
0.0
 20
0.0
 30
0.0
  0
VERTEX
  5
169
330
168
100
AcDbEntity
  8
Layer 1
 62
     7
370
    25
100
AcDbVertex
100
AcDb2dVertex
 10
-31.90675183664137
 20
234.8225314083083
 30
0.0
  0
VERTEX
  5
16A
330
168
100
AcDbEntity
  8
Layer 1
 62
     7
370
    25
100
AcDbVertex
100
AcDb2dVertex
 10
-38.96196288088451
 20
240.1131645450064
 30
0.0
  0
SEQEND
  5
16B
330
168
100
AcDbEntity
  8
Layer 1
370
    25
  0
POLYLINE
  5
16C
330
3C
100
AcDbEntity
  8
Layer 1
 62
     7
370
    25
100
AcDb2dPolyline
 66
     1
 10
0.0
 20
0.0
 30
0.0
  0
VERTEX
  5
16D
330
16C
100
AcDbEntity
  8
Layer 1
 62
     7
370
    25
100
AcDbVertex
100
AcDb2dVertex
 10
-38.96196288088451
 20
240.1131645450064
 30
0.0
  0
VERTEX
  5
16E
330
16C
100
AcDbEntity
  8
Layer 1
 62
     7
370
    25
100
AcDbVertex
100
AcDb2dVertex
 10
-53.07359075279063
 20
240.1131645450064
 30
0.0
  0
SEQEND
  5
16F
330
16C
100
AcDbEntity
  8
Layer 1
370
    25
  0
POLYLINE
  5
170
330
3C
100
AcDbEntity
  8
Layer 1
 62
     7
370
    25
100
AcDb2dPolyline
 66
     1
 10
0.0
 20
0.0
 30
0.0
  0
VERTEX
  5
171
330
170
100
AcDbEntity
  8
Layer 1
 62
     7
370
    25
100
AcDbVertex
100
AcDb2dVertex
 10
-53.07359075279063
 20
240.1131645450064
 30
0.0
  0
VERTEX
  5
172
330
170
100
AcDbEntity
  8
Layer 1
 62
     7
370
    25
100
AcDbVertex
100
AcDb2dVertex
 10
-60.12897405180804
 20
234.8225314083083
 30
0.0
  0
SEQEND
  5
173
330
170
100
AcDbEntity
  8
Layer 1
370
    25
  0
POLYLINE
  5
174
330
3C
100
AcDbEntity
  8
Layer 1
 62
     7
370
    25
100
AcDb2dPolyline
 66
     1
 10
0.0
 20
0.0
 30
0.0
  0
VERTEX
  5
175
330
174
100
AcDbEntity
  8
Layer 1
 62
     7
370
    25
100
AcDbVertex
100
AcDb2dVertex
 10
-60.12897405180804
 20
234.8225314083083
 30
0.0
  0
VERTEX
  5
176
330
174
100
AcDbEntity
  8
Layer 1
 62
     7
370
    25
100
AcDbVertex
100
AcDb2dVertex
 10
-60.12897405180804
 20
218.9471869027285
 30
0.0
  0
SEQEND
  5
177
330
174
100
AcDbEntity
  8
Layer 1
370
    25
  0
POLYLINE
  5
178
330
3C
100
AcDbEntity
  8
Layer 1
 62
     7
370
    25
100
AcDb2dPolyline
 66
     1
 10
0.0
 20
0.0
 30
0.0
  0
VERTEX
  5
179
330
178
100
AcDbEntity
  8
Layer 1
 62
     7
370
    25
100
AcDbVertex
100
AcDb2dVertex
 10
-60.12897405180804
 20
218.9471869027285
 30
0.0
  0
VERTEX
  5
17A
330
178
100
AcDbEntity
  8
Layer 1
 62
     7
370
    25
100
AcDbVertex
100
AcDb2dVertex
 10
-74.24008515939137
 20
218.9471869027285
 30
0.0
  0
SEQEND
  5
17B
330
178
100
AcDbEntity
  8
Layer 1
370
    25
  0
POLYLINE
  5
17C
330
3C
100
AcDbEntity
  8
Layer 1
 62
     7
370
    25
100
AcDb2dPolyline
 66
     1
 10
0.0
 20
0.0
 30
0.0
  0
VERTEX
  5
17D
330
17C
100
AcDbEntity
  8
Layer 1
 62
     7
370
    25
100
AcDbVertex
100
AcDb2dVertex
 10
-74.24008515939137
 20
218.9471869027285
 30
0.0
  0
VERTEX
  5
17E
330
17C
100
AcDbEntity
  8
Layer 1
 62
     7
370
    25
100
AcDbVertex
100
AcDb2dVertex
 10
-74.24008515939137
 20
240.1131645450064
 30
0.0
  0
SEQEND
  5
17F
330
17C
100
AcDbEntity
  8
Layer 1
370
    25
  0
POLYLINE
  5
180
330
3C
100
AcDbEntity
  8
Layer 1
 62
     7
370
    15
100
AcDb2dPolyline
 66
     1
 10
0.0
 20
0.0
 30
0.0
  0
VERTEX
  5
181
330
180
100
AcDbEntity
  8
Layer 1
 62
     7
370
    15
100
AcDbVertex
100
AcDb2dVertex
 10
580.3301240953689
 20
584.2806150883049
 30
0.0
  0
VERTEX
  5
182
330
180
100
AcDbEntity
  8
Layer 1
 62
     7
370
    15
100
AcDbVertex
100
AcDb2dVertex
 10
580.3301240953689
 20
1019.280075157506
 30
0.0
  0
SEQEND
  5
183
330
180
100
AcDbEntity
  8
Layer 1
370
    15
  0
SPLINE
  5
184
330
3C
100
AcDbEntity
  8
Layer 1
 62
     7
370
    15
100
AcDbSpline
210
0.0
220
0.0
230
1.0
 70
     8
 71
     3
 72
     8
 73
     4
 74
     0
 42
0.0000000001
 43
0.0000000001
 40
0.0
 40
0.0
 40
0.0
 40
0.0
 40
1.0
 40
1.0
 40
1.0
 40
1.0
 10
570.3297009207856
 20
574.2808809328187
 30
0.0
 10
575.8528780027382
 20
574.2808809328187
 30
0.0
 10
580.3301240953689
 20
578.7577825159009
 30
0.0
 10
580.3301240953689
 20
584.2806150883049
 30
0.0
  0
POLYLINE
  5
185
330
3C
100
AcDbEntity
  8
Layer 1
 62
     7
370
    15
100
AcDb2dPolyline
 66
     1
 10
0.0
 20
0.0
 30
0.0
  0
VERTEX
  5
186
330
185
100
AcDbEntity
  8
Layer 1
 62
     7
370
    15
100
AcDbVertex
100
AcDb2dVertex
 10
160.3302652593966
 20
574.2808809328187
 30
0.0
  0
VERTEX
  5
187
330
185
100
AcDbEntity
  8
Layer 1
 62
     7
370
    15
100
AcDbVertex
100
AcDb2dVertex
 10
570.3297009207856
 20
574.2808809328187
 30
0.0
  0
SEQEND
  5
188
330
185
100
AcDbEntity
  8
Layer 1
370
    15
  0
SPLINE
  5
189
330
3C
100
AcDbEntity
  8
Layer 1
 62
     7
370
    15
100
AcDbSpline
210
0.0
220
0.0
230
1.0
 70
     8
 71
     3
 72
     8
 73
     4
 74
     0
 42
0.0000000001
 43
0.0000000001
 40
0.0
 40
0.0
 40
0.0
 40
0.0
 40
1.0
 40
1.0
 40
1.0
 40
1.0
 10
150.3303588491362
 20
584.2806150883049
 30
0.0
 10
150.3303588491362
 20
578.7577825159009
 30
0.0
 10
154.8072604322183
 20
574.2808809328187
 30
0.0
 10
160.3302652593966
 20
574.2808809328187
 30
0.0
  0
POLYLINE
  5
18A
330
3C
100
AcDbEntity
  8
Layer 1
 62
     7
370
    15
100
AcDb2dPolyline
 66
     1
 10
0.0
 20
0.0
 30
0.0
  0
VERTEX
  5
18B
330
18A
100
AcDbEntity
  8
Layer 1
 62
     7
370
    15
100
AcDbVertex
100
AcDb2dVertex
 10
150.3303588491362
 20
1019.280075157506
 30
0.0
  0
VERTEX
  5
18C
330
18A
100
AcDbEntity
  8
Layer 1
 62
     7
370
    15
100
AcDbVertex
100
AcDb2dVertex
 10
150.3303588491362
 20
584.2806150883049
 30
0.0
  0
SEQEND
  5
18D
330
18A
100
AcDbEntity
  8
Layer 1
370
    15
  0
SPLINE
  5
18E
330
3C
100
AcDbEntity
  8
Layer 1
 62
     7
370
    15
100
AcDbSpline
210
0.0
220
0.0
230
1.0
 70
     8
 71
     3
 72
     8
 73
     4
 74
     0
 42
0.0000000001
 43
0.0000000001
 40
0.0
 40
0.0
 40
0.0
 40
0.0
 40
1.0
 40
1.0
 40
1.0
 40
1.0
 10
160.3302652593966
 20
1029.280326077315
 30
0.0
 10
154.8072604322183
 20
1029.280326077315
 30
0.0
 10
150.3303588491362
 20
1024.803079984685
 30
0.0
 10
150.3303588491362
 20
1019.280075157506
 30
0.0
  0
POLYLINE
  5
18F
330
3C
100
AcDbEntity
  8
Layer 1
 62
     7
370
    15
100
AcDb2dPolyline
 66
     1
 10
0.0
 20
0.0
 30
0.0
  0
VERTEX
  5
190
330
18F
100
AcDbEntity
  8
Layer 1
 62
     7
370
    15
100
AcDbVertex
100
AcDb2dVertex
 10
570.3297009207856
 20
1029.280326077315
 30
0.0
  0
VERTEX
  5
191
330
18F
100
AcDbEntity
  8
Layer 1
 62
     7
370
    15
100
AcDbVertex
100
AcDb2dVertex
 10
160.3302652593966
 20
1029.280326077315
 30
0.0
  0
SEQEND
  5
192
330
18F
100
AcDbEntity
  8
Layer 1
370
    15
  0
SPLINE
  5
193
330
3C
100
AcDbEntity
  8
Layer 1
 62
     7
370
    15
100
AcDbSpline
210
0.0
220
0.0
230
1.0
 70
     8
 71
     3
 72
     8
 73
     4
 74
     0
 42
0.0000000001
 43
0.0000000001
 40
0.0
 40
0.0
 40
0.0
 40
0.0
 40
1.0
 40
1.0
 40
1.0
 40
1.0
 10
580.3301240953689
 20
1019.280075157506
 30
0.0
 10
580.3301240953689
 20
1024.803079984685
 30
0.0
 10
575.8528780027382
 20
1029.280326077315
 30
0.0
 10
570.3297009207856
 20
1029.280326077315
 30
0.0
  0
POLYLINE
  5
194
330
3C
100
AcDbEntity
  8
Layer 1
 62
     7
370
    15
100
AcDb2dPolyline
 66
     1
 10
0.0
 20
0.0
 30
0.0
  0
VERTEX
  5
195
330
194
100
AcDbEntity
  8
Layer 1
 62
     7
370
    15
100
AcDbVertex
100
AcDb2dVertex
 10
545.3293320034246
 20
1004.280129414729
 30
0.0
  0
VERTEX
  5
196
330
194
100
AcDbEntity
  8
Layer 1
 62
     7
370
    15
100
AcDbVertex
100
AcDb2dVertex
 10
185.3301174124348
 20
1004.280129414729
 30
0.0
  0
SEQEND
  5
197
330
194
100
AcDbEntity
  8
Layer 1
370
    15
  0
SPLINE
  5
198
330
3C
100
AcDbEntity
  8
Layer 1
 62
     7
370
    15
100
AcDbSpline
210
0.0
220
0.0
230
1.0
 70
     8
 71
     3
 72
     8
 73
     4
 74
     0
 42
0.0000000001
 43
0.0000000001
 40
0.0
 40
0.0
 40
0.0
 40
0.0
 40
1.0
 40
1.0
 40
1.0
 40
1.0
 10
555.3297551780079
 20
994.2802230044682
 30
0.0
 10
555.3297551780079
 20
999.8032278316465
 30
0.0
 10
550.8525090853772
 20
1004.280129414729
 30
0.0
 10
545.3293320034246
 20
1004.280129414729
 30
0.0
  0
SPLINE
  5
199
330
3C
100
AcDbEntity
  8
Layer 1
 62
     7
370
    15
100
AcDbSpline
210
0.0
220
0.0
230
1.0
 70
     8
 71
     3
 72
     8
 73
     4
 74
     0
 42
0.0000000001
 43
0.0000000001
 40
0.0
 40
0.0
 40
0.0
 40
0.0
 40
1.0
 40
1.0
 40
1.0
 40
1.0
 10
185.3301174124348
 20
1004.280129414729
 30
0.0
 10
179.8071125852566
 20
1004.280129414729
 30
0.0
 10
175.3302110021744
 20
999.8032278316465
 30
0.0
 10
175.3302110021744
 20
994.2802230044682
 30
0.0
  0
POLYLINE
  5
19A
330
3C
100
AcDbEntity
  8
Layer 1
 62
     7
370
    15
100
AcDb2dPolyline
 66
     1
 10
0.0
 20
0.0
 30
0.0
  0
VERTEX
  5
19B
330
19A
100
AcDbEntity
  8
Layer 1
 62
     7
370
    15
100
AcDbVertex
100
AcDb2dVertex
 10
175.3302110021744
 20
994.2802230044682
 30
0.0
  0
VERTEX
  5
19C
330
19A
100
AcDbEntity
  8
Layer 1
 62
     7
370
    15
100
AcDbVertex
100
AcDb2dVertex
 10
175.3302110021744
 20
609.2806394961174
 30
0.0
  0
SEQEND
  5
19D
330
19A
100
AcDbEntity
  8
Layer 1
370
    15
  0
POLYLINE
  5
19E
330
3C
100
AcDbEntity
  8
Layer 1
 62
     7
370
    15
100
AcDb2dPolyline
 66
     1
 10
0.0
 20
0.0
 30
0.0
  0
VERTEX
  5
19F
330
19E
100
AcDbEntity
  8
Layer 1
 62
     7
370
    15
100
AcDbVertex
100
AcDb2dVertex
 10
555.3297551780079
 20
609.2806394961174
 30
0.0
  0
VERTEX
  5
1A0
330
19E
100
AcDbEntity
  8
Layer 1
 62
     7
370
    15
100
AcDbVertex
100
AcDb2dVertex
 10
555.3297551780079
 20
994.2802230044682
 30
0.0
  0
SEQEND
  5
1A1
330
19E
100
AcDbEntity
  8
Layer 1
370
    15
  0
SPLINE
  5
1A2
330
3C
100
AcDbEntity
  8
Layer 1
 62
     7
370
    15
100
AcDbSpline
210
0.0
220
0.0
230
1.0
 70
     8
 71
     3
 72
     8
 73
     4
 74
     0
 42
0.0000000001
 43
0.0000000001
 40
0.0
 40
0.0
 40
0.0
 40
0.0
 40
1.0
 40
1.0
 40
1.0
 40
1.0
 10
545.3293320034246
 20
599.2805608310827
 30
0.0
 10
550.8525090853772
 20
599.2805608310827
 30
0.0
 10
555.3297551780079
 20
603.7581514332619
 30
0.0
 10
555.3297551780079
 20
609.2806394961174
 30
0.0
  0
SPLINE
  5
1A3
330
3C
100
AcDbEntity
  8
Layer 1
 62
     7
370
    15
100
AcDbSpline
210
0.0
220
0.0
230
1.0
 70
     8
 71
     3
 72
     8
 73
     4
 74
     0
 42
0.0000000001
 43
0.0000000001
 40
0.0
 40
0.0
 40
0.0
 40
0.0
 40
1.0
 40
1.0
 40
1.0
 40
1.0
 10
175.3302110021744
 20
609.2806394961174
 30
0.0
 10
175.3302110021744
 20
603.7581514332619
 30
0.0
 10
179.8071125852566
 20
599.2805608310827
 30
0.0
 10
185.3301174124348
 20
599.2805608310827
 30
0.0
  0
POLYLINE
  5
1A4
330
3C
100
AcDbEntity
  8
Layer 1
 62
     7
370
    15
100
AcDb2dPolyline
 66
     1
 10
0.0
 20
0.0
 30
0.0
  0
VERTEX
  5
1A5
330
1A4
100
AcDbEntity
  8
Layer 1
 62
     7
370
    15
100
AcDbVertex
100
AcDb2dVertex
 10
185.3301174124348
 20
599.2805608310827
 30
0.0
  0
VERTEX
  5
1A6
330
1A4
100
AcDbEntity
  8
Layer 1
 62
     7
370
    15
100
AcDbVertex
100
AcDb2dVertex
 10
545.3293320034246
 20
599.2805608310827
 30
0.0
  0
SEQEND
  5
1A7
330
1A4
100
AcDbEntity
  8
Layer 1
370
    15
  0
POLYLINE
  5
1A8
330
3C
100
AcDbEntity
  8
Layer 1
 62
     7
370
    15
100
AcDb2dPolyline
 66
     1
 10
0.0
 20
0.0
 30
0.0
  0
VERTEX
  5
1A9
330
1A8
100
AcDbEntity
  8
Layer 1
 62
     7
370
    15
100
AcDbVertex
100
AcDb2dVertex
 10
185.3301174124348
 20
1004.280129414729
 30
0.0
  0
VERTEX
  5
1AA
330
1A8
100
AcDbEntity
  8
Layer 1
 62
     7
370
    15
100
AcDbVertex
100
AcDb2dVertex
 10
185.3301174124348
 20
994.2802230044682
 30
0.0
  0
SEQEND
  5
1AB
330
1A8
100
AcDbEntity
  8
Layer 1
370
    15
  0
POLYLINE
  5
1AC
330
3C
100
AcDbEntity
  8
Layer 1
 62
     7
370
    15
100
AcDb2dPolyline
 66
     1
 10
0.0
 20
0.0
 30
0.0
  0
VERTEX
  5
1AD
330
1AC
100
AcDbEntity
  8
Layer 1
 62
     7
370
    15
100
AcDbVertex
100
AcDb2dVertex
 10
175.3302110021744
 20
994.2802230044682
 30
0.0
  0
VERTEX
  5
1AE
330
1AC
100
AcDbEntity
  8
Layer 1
 62
     7
370
    15
100
AcDbVertex
100
AcDb2dVertex
 10
185.3301174124348
 20
994.2802230044682
 30
0.0
  0
SEQEND
  5
1AF
330
1AC
100
AcDbEntity
  8
Layer 1
370
    15
  0
POLYLINE
  5
1B0
330
3C
100
AcDbEntity
  8
Layer 1
 62
     7
370
    15
100
AcDb2dPolyline
 66
     1
 10
0.0
 20
0.0
 30
0.0
  0
VERTEX
  5
1B1
330
1B0
100
AcDbEntity
  8
Layer 1
 62
     7
370
    15
100
AcDbVertex
100
AcDb2dVertex
 10
545.3293320034246
 20
1004.280129414729
 30
0.0
  0
VERTEX
  5
1B2
330
1B0
100
AcDbEntity
  8
Layer 1
 62
     7
370
    15
100
AcDbVertex
100
AcDb2dVertex
 10
545.3293320034246
 20
994.2802230044682
 30
0.0
  0
SEQEND
  5
1B3
330
1B0
100
AcDbEntity
  8
Layer 1
370
    15
  0
POLYLINE
  5
1B4
330
3C
100
AcDbEntity
  8
Layer 1
 62
     7
370
    15
100
AcDb2dPolyline
 66
     1
 10
0.0
 20
0.0
 30
0.0
  0
VERTEX
  5
1B5
330
1B4
100
AcDbEntity
  8
Layer 1
 62
     7
370
    15
100
AcDbVertex
100
AcDb2dVertex
 10
545.3293320034246
 20
994.2802230044682
 30
0.0
  0
VERTEX
  5
1B6
330
1B4
100
AcDbEntity
  8
Layer 1
 62
     7
370
    15
100
AcDbVertex
100
AcDb2dVertex
 10
185.3301174124348
 20
994.2802230044682
 30
0.0
  0
SEQEND
  5
1B7
330
1B4
100
AcDbEntity
  8
Layer 1
370
    15
  0
POLYLINE
  5
1B8
330
3C
100
AcDbEntity
  8
Layer 1
 62
     7
370
    15
100
AcDb2dPolyline
 66
     1
 10
0.0
 20
0.0
 30
0.0
  0
VERTEX
  5
1B9
330
1B8
100
AcDbEntity
  8
Layer 1
 62
     7
370
    15
100
AcDbVertex
100
AcDb2dVertex
 10
545.3293320034246
 20
994.2802230044682
 30
0.0
  0
VERTEX
  5
1BA
330
1B8
100
AcDbEntity
  8
Layer 1
 62
     7
370
    15
100
AcDbVertex
100
AcDb2dVertex
 10
555.3297551780079
 20
994.2802230044682
 30
0.0
  0
SEQEND
  5
1BB
330
1B8
100
AcDbEntity
  8
Layer 1
370
    15
  0
POLYLINE
  5
1BC
330
3C
100
AcDbEntity
  8
Layer 1
 62
     7
370
    15
100
AcDb2dPolyline
 66
     1
 10
0.0
 20
0.0
 30
0.0
  0
VERTEX
  5
1BD
330
1BC
100
AcDbEntity
  8
Layer 1
 62
     7
370
    15
100
AcDbVertex
100
AcDb2dVertex
 10
185.3301174124348
 20
994.2802230044682
 30
0.0
  0
VERTEX
  5
1BE
330
1BC
100
AcDbEntity
  8
Layer 1
 62
     7
370
    15
100
AcDbVertex
100
AcDb2dVertex
 10
185.3301174124348
 20
609.2806394961174
 30
0.0
  0
SEQEND
  5
1BF
330
1BC
100
AcDbEntity
  8
Layer 1
370
    15
  0
POLYLINE
  5
1C0
330
3C
100
AcDbEntity
  8
Layer 1
 62
     7
370
    15
100
AcDb2dPolyline
 66
     1
 10
0.0
 20
0.0
 30
0.0
  0
VERTEX
  5
1C1
330
1C0
100
AcDbEntity
  8
Layer 1
 62
     7
370
    15
100
AcDbVertex
100
AcDb2dVertex
 10
175.3302110021744
 20
609.2806394961174
 30
0.0
  0
VERTEX
  5
1C2
330
1C0
100
AcDbEntity
  8
Layer 1
 62
     7
370
    15
100
AcDbVertex
100
AcDb2dVertex
 10
185.3301174124348
 20
609.2806394961174
 30
0.0
  0
SEQEND
  5
1C3
330
1C0
100
AcDbEntity
  8
Layer 1
370
    15
  0
POLYLINE
  5
1C4
330
3C
100
AcDbEntity
  8
Layer 1
 62
     7
370
    15
100
AcDb2dPolyline
 66
     1
 10
0.0
 20
0.0
 30
0.0
  0
VERTEX
  5
1C5
330
1C4
100
AcDbEntity
  8
Layer 1
 62
     7
370
    15
100
AcDbVertex
100
AcDb2dVertex
 10
545.3293320034246
 20
609.2806394961174
 30
0.0
  0
VERTEX
  5
1C6
330
1C4
100
AcDbEntity
  8
Layer 1
 62
     7
370
    15
100
AcDbVertex
100
AcDb2dVertex
 10
545.3293320034246
 20
994.2802230044682
 30
0.0
  0
SEQEND
  5
1C7
330
1C4
100
AcDbEntity
  8
Layer 1
370
    15
  0
POLYLINE
  5
1C8
330
3C
100
AcDbEntity
  8
Layer 1
 62
     7
370
    15
100
AcDb2dPolyline
 66
     1
 10
0.0
 20
0.0
 30
0.0
  0
VERTEX
  5
1C9
330
1C8
100
AcDbEntity
  8
Layer 1
 62
     7
370
    15
100
AcDbVertex
100
AcDb2dVertex
 10
545.3293320034246
 20
609.2806394961174
 30
0.0
  0
VERTEX
  5
1CA
330
1C8
100
AcDbEntity
  8
Layer 1
 62
     7
370
    15
100
AcDbVertex
100
AcDb2dVertex
 10
555.3297551780079
 20
609.2806394961174
 30
0.0
  0
SEQEND
  5
1CB
330
1C8
100
AcDbEntity
  8
Layer 1
370
    15
  0
POLYLINE
  5
1CC
330
3C
100
AcDbEntity
  8
Layer 1
 62
     7
370
    15
100
AcDb2dPolyline
 66
     1
 10
0.0
 20
0.0
 30
0.0
  0
VERTEX
  5
1CD
330
1CC
100
AcDbEntity
  8
Layer 1
 62
     7
370
    15
100
AcDbVertex
100
AcDb2dVertex
 10
545.3293320034246
 20
609.2806394961174
 30
0.0
  0
VERTEX
  5
1CE
330
1CC
100
AcDbEntity
  8
Layer 1
 62
     7
370
    15
100
AcDbVertex
100
AcDb2dVertex
 10
545.3293320034246
 20
599.2805608310827
 30
0.0
  0
SEQEND
  5
1CF
330
1CC
100
AcDbEntity
  8
Layer 1
370
    15
  0
POLYLINE
  5
1D0
330
3C
100
AcDbEntity
  8
Layer 1
 62
     7
370
    15
100
AcDb2dPolyline
 66
     1
 10
0.0
 20
0.0
 30
0.0
  0
VERTEX
  5
1D1
330
1D0
100
AcDbEntity
  8
Layer 1
 62
     7
370
    15
100
AcDbVertex
100
AcDb2dVertex
 10
185.3301174124348
 20
609.2806394961174
 30
0.0
  0
VERTEX
  5
1D2
330
1D0
100
AcDbEntity
  8
Layer 1
 62
     7
370
    15
100
AcDbVertex
100
AcDb2dVertex
 10
545.3293320034246
 20
609.2806394961174
 30
0.0
  0
SEQEND
  5
1D3
330
1D0
100
AcDbEntity
  8
Layer 1
370
    15
  0
POLYLINE
  5
1D4
330
3C
100
AcDbEntity
  8
Layer 1
 62
     7
370
    15
100
AcDb2dPolyline
 66
     1
 10
0.0
 20
0.0
 30
0.0
  0
VERTEX
  5
1D5
330
1D4
100
AcDbEntity
  8
Layer 1
 62
     7
370
    15
100
AcDbVertex
100
AcDb2dVertex
 10
185.3301174124348
 20
609.2806394961174
 30
0.0
  0
VERTEX
  5
1D6
330
1D4
100
AcDbEntity
  8
Layer 1
 62
     7
370
    15
100
AcDbVertex
100
AcDb2dVertex
 10
185.3301174124348
 20
599.2805608310827
 30
0.0
  0
SEQEND
  5
1D7
330
1D4
100
AcDbEntity
  8
Layer 1
370
    15
  0
SPLINE
  5
1D8
330
3C
100
AcDbEntity
  8
Layer 1
 62
     7
370
    15
100
AcDbSpline
210
0.0
220
0.0
230
1.0
 70
     8
 71
     3
 72
     8
 73
     4
 74
     0
 42
0.0000000001
 43
0.0000000001
 40
0.0
 40
0.0
 40
0.0
 40
0.0
 40
1.0
 40
1.0
 40
1.0
 40
1.0
 10
423.001915041819
 20
911.3741724067052
 30
0.0
 10
423.0566920600344
 20
911.3026866753862
 30
0.0
 10
423.1114690782499
 20
911.2282726129048
 30
0.0
 10
423.1648680582713
 20
911.1545475695204
 30
0.0
  0
SPLINE
  5
1D9
330
3C
100
AcDbEntity
  8
Layer 1
 62
     7
370
    15
100
AcDbSpline
210
0.0
220
0.0
230
1.0
 70
     8
 71
     3
 72
     8
 73
     4
 74
     0
 42
0.0000000001
 43
0.0000000001
 40
0.0
 40
0.0
 40
0.0
 40
0.0
 40
1.0
 40
1.0
 40
1.0
 40
1.0
 10
423.1648680582713
 20
911.1545475695204
 30
0.0
 10
423.2189560573897
 20
911.0809947809104
 30
0.0
 10
423.2713215087655
 20
911.0069252279775
 30
0.0
 10
423.3229979410443
 20
910.9325111654961
 30
0.0
  0
SPLINE
  5
1DA
330
3C
100
AcDbEntity
  8
Layer 1
 62
     7
370
    15
100
AcDbSpline
210
0.0
220
0.0
230
1.0
 70
     8
 71
     3
 72
     8
 73
     4
 74
     0
 42
0.0000000001
 43
0.0000000001
 40
0.0
 40
0.0
 40
0.0
 40
0.0
 40
1.0
 40
1.0
 40
1.0
 40
1.0
 10
423.3229979410443
 20
910.9325111654961
 30
0.0
 10
423.4266953151503
 20
910.7835107857591
 30
0.0
 10
423.5276366128681
 20
910.6326156035051
 30
0.0
 10
423.6240992864551
 20
910.4803423830571
 30
0.0
  0
SPLINE
  5
1DB
330
3C
100
AcDbEntity
  8
Layer 1
 62
     7
370
    15
100
AcDbSpline
210
0.0
220
0.0
230
1.0
 70
     8
 71
     3
 72
     8
 73
     4
 74
     0
 42
0.0000000001
 43
0.0000000001
 40
0.0
 40
0.0
 40
0.0
 40
0.0
 40
1.0
 40
1.0
 40
1.0
 40
1.0
 10
423.6240992864551
 20
910.4803423830571
 30
0.0
 10
423.8187471813717
 20
910.1754514326125
 30
0.0
 10
423.9992701847988
 20
909.8643593102944
 30
0.0
 10
424.1680798635761
 20
909.5460324874573
 30
0.0
  0
SPLINE
  5
1DC
330
3C
100
AcDbEntity
  8
Layer 1
 62
     7
370
    15
100
AcDbSpline
210
0.0
220
0.0
230
1.0
 70
     8
 71
     3
 72
     8
 73
     4
 74
     0
 42
0.0000000001
 43
0.0000000001
 40
0.0
 40
0.0
 40
0.0
 40
0.0
 40
1.0
 40
1.0
 40
1.0
 40
1.0
 10
424.1680798635761
 20
909.5460324874573
 30
0.0
 10
424.5043211829365
 20
908.9100678608802
 30
0.0
 10
424.7885415604695
 20
908.2479205086152
 30
0.0
 10
425.0207409961754
 20
907.5582123924681
 30
0.0
  0
SPLINE
  5
1DD
330
3C
100
AcDbEntity
  8
Layer 1
 62
     7
370
    15
100
AcDbSpline
210
0.0
220
0.0
230
1.0
 70
     8
 71
     3
 72
     8
 73
     4
 74
     0
 42
0.0000000001
 43
0.0000000001
 40
0.0
 40
0.0
 40
0.0
 40
0.0
 40
1.0
 40
1.0
 40
1.0
 40
1.0
 10
425.0207409961754
 20
907.5582123924681
 30
0.0
 10
425.1371852235768
 20
907.2138750987174
 30
0.0
 10
425.2395045594888
 20
906.8619585948991
 30
0.0
 10
425.3270099848141
 20
906.5096975815324
 30
0.0
  0
SPLINE
  5
1DE
330
3C
100
AcDbEntity
  8
Layer 1
 62
     7
370
    15
100
AcDbSpline
210
0.0
220
0.0
230
1.0
 70
     8
 71
     3
 72
     8
 73
     4
 74
     0
 42
0.0000000001
 43
0.0000000001
 40
0.0
 40
0.0
 40
0.0
 40
0.0
 40
1.0
 40
1.0
 40
1.0
 40
1.0
 10
425.3270099848141
 20
906.5096975815324
 30
0.0
 10
425.4141709005909
 20
906.1574365681655
 30
0.0
 10
425.4865179057812
 20
905.8029362427334
 30
0.0
 10
425.5447400194819
 20
905.4460243504615
 30
0.0
  0
SPLINE
  5
1DF
330
3C
100
AcDbEntity
  8
Layer 1
 62
     7
370
    15
100
AcDbSpline
210
0.0
220
0.0
230
1.0
 70
     8
 71
     3
 72
     8
 73
     4
 74
     0
 42
0.0000000001
 43
0.0000000001
 40
0.0
 40
0.0
 40
0.0
 40
0.0
 40
1.0
 40
1.0
 40
1.0
 40
1.0
 10
425.5447400194819
 20
905.4460243504615
 30
0.0
 10
425.6611842468834
 20
904.7332340945633
 30
0.0
 10
425.7194063605841
 20
904.0111420808549
 30
0.0
 10
425.7194063605841
 20
903.2802650736592
 30
0.0
  0
POLYLINE
  5
1E0
330
3C
100
AcDbEntity
  8
Layer 1
 62
     7
370
    15
100
AcDb2dPolyline
 66
     1
 10
0.0
 20
0.0
 30
0.0
  0
VERTEX
  5
1E1
330
1E0
100
AcDbEntity
  8
Layer 1
 62
     7
370
    15
100
AcDbVertex
100
AcDb2dVertex
 10
545.3293320034246
 20
994.2802230044682
 30
0.0
  0
VERTEX
  5
1E2
330
1E0
100
AcDbEntity
  8
Layer 1
 62
     7
370
    15
100
AcDbVertex
100
AcDb2dVertex
 10
423.001915041819
 20
911.3741724067052
 30
0.0
  0
SEQEND
  5
1E3
330
1E0
100
AcDbEntity
  8
Layer 1
370
    15
  0
POLYLINE
  5
1E4
330
3C
100
AcDbEntity
  8
Layer 1
 62
     7
370
    15
100
AcDb2dPolyline
 66
     1
 10
0.0
 20
0.0
 30
0.0
  0
VERTEX
  5
1E5
330
1E4
100
AcDbEntity
  8
Layer 1
 62
     7
370
    15
100
AcDbVertex
100
AcDb2dVertex
 10
545.3293320034246
 20
609.2806394961174
 30
0.0
  0
VERTEX
  5
1E6
330
1E4
100
AcDbEntity
  8
Layer 1
 62
     7
370
    15
100
AcDbVertex
100
AcDb2dVertex
 10
419.8689452075328
 20
798.2007186589568
 30
0.0
  0
SEQEND
  5
1E7
330
1E4
100
AcDbEntity
  8
Layer 1
370
    15
  0
SPLINE
  5
1E8
330
3C
100
AcDbEntity
  8
Layer 1
 62
     7
370
    15
100
AcDbSpline
210
0.0
220
0.0
230
1.0
 70
     8
 71
     3
 72
     8
 73
     4
 74
     0
 42
0.0000000001
 43
0.0000000001
 40
0.0
 40
0.0
 40
0.0
 40
0.0
 40
1.0
 40
1.0
 40
1.0
 40
1.0
 10
425.7194063605841
 20
809.2804902490687
 30
0.0
 10
425.7194063605841
 20
808.1844331204366
 30
0.0
 10
425.5905597894357
 20
807.1104246029099
 30
0.0
 10
425.3311440993964
 20
806.0581201869404
 30
0.0
  0
SPLINE
  5
1E9
330
3C
100
AcDbEntity
  8
Layer 1
 62
     7
370
    15
100
AcDbSpline
210
0.0
220
0.0
230
1.0
 70
     8
 71
     3
 72
     8
 73
     4
 74
     0
 42
0.0000000001
 43
0.0000000001
 40
0.0
 40
0.0
 40
0.0
 40
0.0
 40
1.0
 40
1.0
 40
1.0
 40
1.0
 10
425.3311440993964
 20
806.0581201869404
 30
0.0
 10
425.2660317947252
 20
805.7950871466415
 30
0.0
 10
425.1936847895349
 20
805.5330876349883
 30
0.0
 10
425.112380536083
 20
805.2728106710777
 30
0.0
  0
SPLINE
  5
1EA
330
3C
100
AcDbEntity
  8
Layer 1
 62
     7
370
    15
100
AcDbSpline
210
0.0
220
0.0
230
1.0
 70
     8
 71
     3
 72
     8
 73
     4
 74
     0
 42
0.0000000001
 43
0.0000000001
 40
0.0
 40
0.0
 40
0.0
 40
0.0
 40
1.0
 40
1.0
 40
1.0
 40
1.0
 10
425.112380536083
 20
805.2728106710777
 30
0.0
 10
425.0314207921797
 20
805.0127059619413
 30
0.0
 10
424.9408147809176
 20
804.753290271902
 30
0.0
 10
424.8443521073306
 20
804.4978364416708
 30
0.0
  0
SPLINE
  5
1EB
330
3C
100
AcDbEntity
  8
Layer 1
 62
     7
370
    15
100
AcDbSpline
210
0.0
220
0.0
230
1.0
 70
     8
 71
     3
 72
     8
 73
     4
 74
     0
 42
0.0000000001
 43
0.0000000001
 40
0.0
 40
0.0
 40
0.0
 40
0.0
 40
1.0
 40
1.0
 40
1.0
 40
1.0
 10
424.8443521073306
 20
804.4978364416708
 30
0.0
 10
424.649704212414
 20
803.9877900550795
 30
0.0
 10
424.4261175154213
 20
803.4941078720432
 30
0.0
 10
424.173936525901
 20
803.0157563639162
 30
0.0
  0
SPLINE
  5
1EC
330
3C
100
AcDbEntity
  8
Layer 1
 62
     7
370
    15
100
AcDbSpline
210
0.0
220
0.0
230
1.0
 70
     8
 71
     3
 72
     8
 73
     4
 74
     0
 42
0.0000000001
 43
0.0000000001
 40
0.0
 40
0.0
 40
0.0
 40
0.0
 40
1.0
 40
1.0
 40
1.0
 40
1.0
 10
424.173936525901
 20
803.0157563639162
 30
0.0
 10
423.9210665172836
 20
802.5379216201121
 30
0.0
 10
423.6406357447843
 20
802.0757620607658
 30
0.0
 10
423.3302326415633
 20
801.6297944502003
 30
0.0
  0
SPLINE
  5
1ED
330
3C
100
AcDbEntity
  8
Layer 1
 62
     7
370
    15
100
AcDbSpline
210
0.0
220
0.0
230
1.0
 70
     8
 71
     3
 72
     8
 73
     4
 74
     0
 42
0.0000000001
 43
0.0000000001
 40
0.0
 40
0.0
 40
0.0
 40
0.0
 40
1.0
 40
1.0
 40
1.0
 40
1.0
 10
423.3302326415633
 20
801.6297944502003
 30
0.0
 10
423.0208630669879
 20
801.1834823300861
 30
0.0
 10
422.6797986139482
 20
800.7512951014616
 30
0.0
 10
422.3163410402543
 20
800.3454628532991
 30
0.0
  0
SPLINE
  5
1EE
330
3C
100
AcDbEntity
  8
Layer 1
 62
     7
370
    15
100
AcDbSpline
210
0.0
220
0.0
230
1.0
 70
     8
 71
     3
 72
     8
 73
     4
 74
     0
 42
0.0000000001
 43
0.0000000001
 40
0.0
 40
0.0
 40
0.0
 40
0.0
 40
1.0
 40
1.0
 40
1.0
 40
1.0
 10
422.3163410402543
 20
800.3454628532991
 30
0.0
 10
421.9535724856574
 20
799.9394583503624
 30
0.0
 10
421.5684108104065
 20
799.5575695158225
 30
0.0
 10
421.1598224858559
 20
799.200313114002
 30
0.0
  0
SPLINE
  5
1EF
330
3C
100
AcDbEntity
  8
Layer 1
 62
     7
370
    15
100
AcDbSpline
210
0.0
220
0.0
230
1.0
 70
     8
 71
     3
 72
     8
 73
     4
 74
     0
 42
0.0000000001
 43
0.0000000001
 40
0.0
 40
0.0
 40
0.0
 40
0.0
 40
1.0
 40
1.0
 40
1.0
 40
1.0
 10
421.1598224858559
 20
799.200313114002
 30
0.0
 10
420.9562173426776
 20
799.0213404035433
 30
0.0
 10
420.7464110276259
 20
798.8487411197323
 30
0.0
 10
420.5317815788949
 20
798.6823430077948
 30
0.0
  0
SPLINE
  5
1F0
330
3C
100
AcDbEntity
  8
Layer 1
 62
     7
370
    15
100
AcDbSpline
210
0.0
220
0.0
230
1.0
 70
     8
 71
     3
 72
     8
 73
     4
 74
     0
 42
0.0000000001
 43
0.0000000001
 40
0.0
 40
0.0
 40
0.0
 40
0.0
 40
1.0
 40
1.0
 40
1.0
 40
1.0
 10
420.5317815788949
 20
798.6823430077948
 30
0.0
 10
420.423605580658
 20
798.5987994422774
 30
0.0
 10
420.3147405633241
 20
798.5173229340512
 30
0.0
 10
420.2048420173446
 20
798.4370522092449
 30
0.0
  0
SPLINE
  5
1F1
330
3C
100
AcDbEntity
  8
Layer 1
 62
     7
370
    15
100
AcDbSpline
210
0.0
220
0.0
230
1.0
 70
     8
 71
     3
 72
     8
 73
     4
 74
     0
 42
0.0000000001
 43
0.0000000001
 40
0.0
 40
0.0
 40
0.0
 40
0.0
 40
1.0
 40
1.0
 40
1.0
 40
1.0
 10
420.2048420173446
 20
798.4370522092449
 30
0.0
 10
420.0942544522681
 20
798.3567814844387
 30
0.0
 10
419.9802217917064
 20
798.2768552691808
 30
0.0
 10
419.8689452075328
 20
798.2007186589568
 30
0.0
  0
POLYLINE
  5
1F2
330
3C
100
AcDbEntity
  8
Layer 1
 62
     7
370
    15
100
AcDb2dPolyline
 66
     1
 10
0.0
 20
0.0
 30
0.0
  0
VERTEX
  5
1F3
330
1F2
100
AcDbEntity
  8
Layer 1
 62
     7
370
    15
100
AcDbVertex
100
AcDb2dVertex
 10
425.7194063605841
 20
903.2802650736592
 30
0.0
  0
VERTEX
  5
1F4
330
1F2
100
AcDbEntity
  8
Layer 1
 62
     7
370
    15
100
AcDbVertex
100
AcDb2dVertex
 10
425.7194063605841
 20
809.2804902490687
 30
0.0
  0
SEQEND
  5
1F5
330
1F2
100
AcDbEntity
  8
Layer 1
370
    15
  0
SPLINE
  5
1F6
330
3C
100
AcDbEntity
  8
Layer 1
 62
     7
370
    15
100
AcDbSpline
210
0.0
220
0.0
230
1.0
 70
     8
 71
     3
 72
     8
 73
     4
 74
     0
 42
0.0000000001
 43
0.0000000001
 40
0.0
 40
0.0
 40
0.0
 40
0.0
 40
1.0
 40
1.0
 40
1.0
 40
1.0
 10
310.790676463101
 20
798.2007186589568
 30
0.0
 10
310.6793998789274
 20
798.2768552691808
 30
0.0
 10
310.5660562374626
 20
798.3567814844387
 30
0.0
 10
310.4554686723861
 20
798.4370522092449
 30
0.0
  0
SPLINE
  5
1F7
330
3C
100
AcDbEntity
  8
Layer 1
 62
     7
370
    15
100
AcDbSpline
210
0.0
220
0.0
230
1.0
 70
     8
 71
     3
 72
     8
 73
     4
 74
     0
 42
0.0000000001
 43
0.0000000001
 40
0.0
 40
0.0
 40
0.0
 40
0.0
 40
1.0
 40
1.0
 40
1.0
 40
1.0
 10
310.4554686723861
 20
798.4370522092449
 30
0.0
 10
310.3452256168582
 20
798.5168061697285
 30
0.0
 10
310.2363605995242
 20
798.5987994422774
 30
0.0
 10
310.1288736203845
 20
798.6819984982462
 30
0.0
  0
SPLINE
  5
1F8
330
3C
100
AcDbEntity
  8
Layer 1
 62
     7
370
    15
100
AcDbSpline
210
0.0
220
0.0
230
1.0
 70
     8
 71
     3
 72
     8
 73
     4
 74
     0
 42
0.0000000001
 43
0.0000000001
 40
0.0
 40
0.0
 40
0.0
 40
0.0
 40
1.0
 40
1.0
 40
1.0
 40
1.0
 10
310.1288736203845
 20
798.6819984982462
 30
0.0
 10
309.9138996621049
 20
798.8483966101837
 30
0.0
 10
309.7047823661502
 20
799.0206513844463
 30
0.0
 10
309.5011772229719
 20
799.1991073305823
 30
0.0
  0
SPLINE
  5
1F9
330
3C
100
AcDbEntity
  8
Layer 1
 62
     7
370
    15
100
AcDbSpline
210
0.0
220
0.0
230
1.0
 70
     8
 71
     3
 72
     8
 73
     4
 74
     0
 42
0.0000000001
 43
0.0000000001
 40
0.0
 40
0.0
 40
0.0
 40
0.0
 40
1.0
 40
1.0
 40
1.0
 40
1.0
 10
309.5011772229719
 20
799.1991073305823
 30
0.0
 10
309.0944837009382
 20
799.5551579489828
 30
0.0
 10
308.7105278091071
 20
799.9353242357801
 30
0.0
 10
308.3491372927044
 20
800.3390894266514
 30
0.0
  0
SPLINE
  5
1FA
330
3C
100
AcDbEntity
  8
Layer 1
 62
     7
370
    15
100
AcDbSpline
210
0.0
220
0.0
230
1.0
 70
     8
 71
     3
 72
     8
 73
     4
 74
     0
 42
0.0000000001
 43
0.0000000001
 40
0.0
 40
0.0
 40
0.0
 40
0.0
 40
1.0
 40
1.0
 40
1.0
 40
1.0
 10
308.3491372927044
 20
800.3390894266514
 30
0.0
 10
308.1686142892773
 20
800.5407997673127
 30
0.0
 10
307.9934311838524
 20
800.7488835346219
 30
0.0
 10
307.8242769955266
 20
800.9626517094816
 30
0.0
  0
SPLINE
  5
1FB
330
3C
100
AcDbEntity
  8
Layer 1
 62
     7
370
    15
100
AcDbSpline
210
0.0
220
0.0
230
1.0
 70
     8
 71
     3
 72
     8
 73
     4
 74
     0
 42
0.0000000001
 43
0.0000000001
 40
0.0
 40
0.0
 40
0.0
 40
0.0
 40
1.0
 40
1.0
 40
1.0
 40
1.0
 10
307.8242769955266
 20
800.9626517094816
 30
0.0
 10
307.6552950619751
 20
801.1764198843414
 30
0.0
 10
307.4914807716514
 20
801.3969059953973
 30
0.0
 10
307.3354179461696
 20
801.6206649471643
 30
0.0
  0
SPLINE
  5
1FC
330
3C
100
AcDbEntity
  8
Layer 1
 62
     7
370
    15
100
AcDbSpline
210
0.0
220
0.0
230
1.0
 70
     8
 71
     3
 72
     8
 73
     4
 74
     0
 42
0.0000000001
 43
0.0000000001
 40
0.0
 40
0.0
 40
0.0
 40
0.0
 40
1.0
 40
1.0
 40
1.0
 40
1.0
 10
307.3354179461696
 20
801.6206649471643
 30
0.0
 10
307.0239813143031
 20
802.0690441245696
 30
0.0
 10
306.7420002488353
 20
802.5324094673357
 30
0.0
 10
306.4894747497665
 20
803.0104164659141
 30
0.0
  0
SPLINE
  5
1FD
330
3C
100
AcDbEntity
  8
Layer 1
 62
     7
370
    15
100
AcDbSpline
210
0.0
220
0.0
230
1.0
 70
     8
 71
     3
 72
     8
 73
     4
 74
     0
 42
0.0000000001
 43
0.0000000001
 40
0.0
 40
0.0
 40
0.0
 40
0.0
 40
1.0
 40
1.0
 40
1.0
 40
1.0
 10
306.4894747497665
 20
803.0104164659141
 30
0.0
 10
306.2369492506977
 20
803.4882512097182
 30
0.0
 10
306.0131902989307
 20
803.9807276093347
 30
0.0
 10
305.819748187434
 20
804.488190174312
 30
0.0
  0
SPLINE
  5
1FE
330
3C
100
AcDbEntity
  8
Layer 1
 62
     7
370
    15
100
AcDbSpline
210
0.0
220
0.0
230
1.0
 70
     8
 71
     3
 72
     8
 73
     4
 74
     0
 42
0.0000000001
 43
0.0000000001
 40
0.0
 40
0.0
 40
0.0
 40
0.0
 40
1.0
 40
1.0
 40
1.0
 40
1.0
 10
305.819748187434
 20
804.488190174312
 30
0.0
 10
305.6259615663886
 20
804.9956527392893
 30
0.0
 10
305.4612860021937
 20
805.52102980079
 30
0.0
 10
305.3305446285285
 20
806.0496797030015
 30
0.0
  0
SPLINE
  5
1FF
330
3C
100
AcDbEntity
  8
Layer 1
 62
     7
370
    15
100
AcDbSpline
210
0.0
220
0.0
230
1.0
 70
     8
 71
     3
 72
     8
 73
     4
 74
     0
 42
0.0000000001
 43
0.0000000001
 40
0.0
 40
0.0
 40
0.0
 40
0.0
 40
1.0
 40
1.0
 40
1.0
 40
1.0
 10
305.3305446285285
 20
806.0496797030015
 30
0.0
 10
305.0694063907466
 20
807.1074962717474
 30
0.0
 10
304.9403875648239
 20
808.1844331204366
 30
0.0
 10
304.9403875648239
 20
809.2804902490687
 30
0.0
  0
POLYLINE
  5
200
330
3C
100
AcDbEntity
  8
Layer 1
 62
     7
370
    15
100
AcDb2dPolyline
 66
     1
 10
0.0
 20
0.0
 30
0.0
  0
VERTEX
  5
201
330
200
100
AcDbEntity
  8
Layer 1
 62
     7
370
    15
100
AcDbVertex
100
AcDb2dVertex
 10
185.3301174124348
 20
609.2806394961174
 30
0.0
  0
VERTEX
  5
202
330
200
100
AcDbEntity
  8
Layer 1
 62
     7
370
    15
100
AcDbVertex
100
AcDb2dVertex
 10
310.790676463101
 20
798.2007186589568
 30
0.0
  0
SEQEND
  5
203
330
200
100
AcDbEntity
  8
Layer 1
370
    15
  0
POLYLINE
  5
204
330
3C
100
AcDbEntity
  8
Layer 1
 62
     7
370
    15
100
AcDb2dPolyline
 66
     1
 10
0.0
 20
0.0
 30
0.0
  0
VERTEX
  5
205
330
204
100
AcDbEntity
  8
Layer 1
 62
     7
370
    15
100
AcDbVertex
100
AcDb2dVertex
 10
307.657878883589
 20
911.3741724067052
 30
0.0
  0
VERTEX
  5
206
330
204
100
AcDbEntity
  8
Layer 1
 62
     7
370
    15
100
AcDbVertex
100
AcDb2dVertex
 10
185.3301174124348
 20
994.2802230044682
 30
0.0
  0
SEQEND
  5
207
330
204
100
AcDbEntity
  8
Layer 1
370
    15
  0
SPLINE
  5
208
330
3C
100
AcDbEntity
  8
Layer 1
 62
     7
370
    15
100
AcDbSpline
210
0.0
220
0.0
230
1.0
 70
     8
 71
     3
 72
     8
 73
     4
 74
     0
 42
0.0000000001
 43
0.0000000001
 40
0.0
 40
0.0
 40
0.0
 40
0.0
 40
1.0
 40
1.0
 40
1.0
 40
1.0
 10
304.9403875648239
 20
903.2802650736592
 30
0.0
 10
304.9403875648239
 20
904.7415023237279
 30
0.0
 10
305.1712089623357
 20
906.1619151922964
 30
0.0
 10
305.633368521682
 20
907.5416759341389
 30
0.0
  0
SPLINE
  5
209
330
3C
100
AcDbEntity
  8
Layer 1
 62
     7
370
    15
100
AcDbSpline
210
0.0
220
0.0
230
1.0
 70
     8
 71
     3
 72
     8
 73
     4
 74
     0
 42
0.0000000001
 43
0.0000000001
 40
0.0
 40
0.0
 40
0.0
 40
0.0
 40
1.0
 40
1.0
 40
1.0
 40
1.0
 10
305.633368521682
 20
907.5416759341389
 30
0.0
 10
305.7486069656636
 20
907.8865299922124
 30
0.0
 10
305.8791760845545
 20
908.228800228672
 30
0.0
 10
306.0223198019667
 20
908.5624577264184
 30
0.0
  0
SPLINE
  5
20A
330
3C
100
AcDbEntity
  8
Layer 1
 62
     7
370
    15
100
AcDbSpline
210
0.0
220
0.0
230
1.0
 70
     8
 71
     3
 72
     8
 73
     4
 74
     0
 42
0.0000000001
 43
0.0000000001
 40
0.0
 40
0.0
 40
0.0
 40
0.0
 40
1.0
 40
1.0
 40
1.0
 40
1.0
 10
306.0223198019667
 20
908.5624577264184
 30
0.0
 10
306.1654635193788
 20
908.8959429693906
 30
0.0
 10
306.3213540900863
 20
909.2225380213923
 30
0.0
 10
306.4898192593151
 20
909.541898372875
 30
0.0
  0
SPLINE
  5
20B
330
3C
100
AcDbEntity
  8
Layer 1
 62
     7
370
    15
100
AcDbSpline
210
0.0
220
0.0
230
1.0
 70
     8
 71
     3
 72
     8
 73
     4
 74
     0
 42
0.0000000001
 43
0.0000000001
 40
0.0
 40
0.0
 40
0.0
 40
0.0
 40
1.0
 40
1.0
 40
1.0
 40
1.0
 10
306.4898192593151
 20
909.541898372875
 30
0.0
 10
306.6588011928666
 20
909.8614309791319
 30
0.0
 10
306.8405299797135
 20
910.1737288848698
 30
0.0
 10
307.0351778746301
 20
910.4791365996372
 30
0.0
  0
SPLINE
  5
20C
330
3C
100
AcDbEntity
  8
Layer 1
 62
     7
370
    15
100
AcDbSpline
210
0.0
220
0.0
230
1.0
 70
     8
 71
     3
 72
     8
 73
     4
 74
     0
 42
0.0000000001
 43
0.0000000001
 40
0.0
 40
0.0
 40
0.0
 40
0.0
 40
1.0
 40
1.0
 40
1.0
 40
1.0
 10
307.0351778746301
 20
910.4791365996372
 30
0.0
 10
307.1325018220884
 20
910.6320988391823
 30
0.0
 10
307.2327541007092
 20
910.782821766662
 30
0.0
 10
307.3367959843637
 20
910.9319944011733
 30
0.0
  0
SPLINE
  5
20D
330
3C
100
AcDbEntity
  8
Layer 1
 62
     7
370
    15
100
AcDbSpline
210
0.0
220
0.0
230
1.0
 70
     8
 71
     3
 72
     8
 73
     4
 74
     0
 42
0.0000000001
 43
0.0000000001
 40
0.0
 40
0.0
 40
0.0
 40
0.0
 40
1.0
 40
1.0
 40
1.0
 40
1.0
 10
307.3367959843637
 20
910.9319944011733
 30
0.0
 10
307.3883001618682
 20
911.006580718429
 30
0.0
 10
307.4411823775668
 20
911.0809947809104
 30
0.0
 10
307.4947536123624
 20
911.1545475695204
 30
0.0
  0
SPLINE
  5
20E
330
3C
100
AcDbEntity
  8
Layer 1
 62
     7
370
    15
100
AcDbSpline
210
0.0
220
0.0
230
1.0
 70
     8
 71
     3
 72
     8
 73
     4
 74
     0
 42
0.0000000001
 43
0.0000000001
 40
0.0
 40
0.0
 40
0.0
 40
0.0
 40
1.0
 40
1.0
 40
1.0
 40
1.0
 10
307.4947536123624
 20
911.1545475695204
 30
0.0
 10
307.5484971019324
 20
911.2282726129048
 30
0.0
 10
307.6032741201478
 20
911.3026866753862
 30
0.0
 10
307.657878883589
 20
911.3741724067052
 30
0.0
  0
POLYLINE
  5
20F
330
3C
100
AcDbEntity
  8
Layer 1
 62
     7
370
    15
100
AcDb2dPolyline
 66
     1
 10
0.0
 20
0.0
 30
0.0
  0
VERTEX
  5
210
330
20F
100
AcDbEntity
  8
Layer 1
 62
     7
370
    15
100
AcDbVertex
100
AcDb2dVertex
 10
304.9403875648239
 20
809.2804902490687
 30
0.0
  0
VERTEX
  5
211
330
20F
100
AcDbEntity
  8
Layer 1
 62
     7
370
    15
100
AcDbVertex
100
AcDb2dVertex
 10
304.9403875648239
 20
903.2802650736592
 30
0.0
  0
SEQEND
  5
212
330
20F
100
AcDbEntity
  8
Layer 1
370
    15
  0
SPLINE
  5
213
330
3C
100
AcDbEntity
  8
Layer 1
 62
     7
370
    15
100
AcDbSpline
210
0.0
220
0.0
230
1.0
 70
     8
 71
     3
 72
     8
 73
     4
 74
     0
 42
0.0000000001
 43
0.0000000001
 40
0.0
 40
0.0
 40
0.0
 40
0.0
 40
1.0
 40
1.0
 40
1.0
 40
1.0
 10
412.3300427571606
 20
916.656709569013
 30
0.0
 10
413.3666719886722
 20
916.656709569013
 30
0.0
 10
414.3864202523062
 20
916.5428491632255
 30
0.0
 10
415.3899765671595
 20
916.3094439440997
 30
0.0
  0
SPLINE
  5
214
330
3C
100
AcDbEntity
  8
Layer 1
 62
     7
370
    15
100
AcDbSpline
210
0.0
220
0.0
230
1.0
 70
     8
 71
     3
 72
     8
 73
     4
 74
     0
 42
0.0000000001
 43
0.0000000001
 40
0.0
 40
0.0
 40
0.0
 40
0.0
 40
1.0
 40
1.0
 40
1.0
 40
1.0
 10
415.3899765671595
 20
916.3094439440997
 30
0.0
 10
415.8922714889089
 20
916.1929997166983
 30
0.0
 10
416.3914658247216
 20
916.0457218847039
 30
0.0
 10
416.8755017403992
 20
915.871916817473
 30
0.0
  0
SPLINE
  5
215
330
3C
100
AcDbEntity
  8
Layer 1
 62
     7
370
    15
100
AcDbSpline
210
0.0
220
0.0
230
1.0
 70
     8
 71
     3
 72
     8
 73
     4
 74
     0
 42
0.0000000001
 43
0.0000000001
 40
0.0
 40
0.0
 40
0.0
 40
0.0
 40
1.0
 40
1.0
 40
1.0
 40
1.0
 10
416.8755017403992
 20
915.871916817473
 30
0.0
 10
417.3588486369798
 20
915.6984562597908
 30
0.0
 10
417.8297931898134
 20
915.4979517025491
 30
0.0
 10
418.2883353989001
 20
915.2709199100713
 30
0.0
  0
SPLINE
  5
216
330
3C
100
AcDbEntity
  8
Layer 1
 62
     7
370
    15
100
AcDbSpline
210
0.0
220
0.0
230
1.0
 70
     8
 71
     3
 72
     8
 73
     4
 74
     0
 42
0.0000000001
 43
0.0000000001
 40
0.0
 40
0.0
 40
0.0
 40
0.0
 40
1.0
 40
1.0
 40
1.0
 40
1.0
 10
418.2883353989001
 20
915.2709199100713
 30
0.0
 10
418.7458440793413
 20
915.0442326271418
 30
0.0
 10
419.1909504160356
 20
914.7908458542016
 30
0.0
 10
419.6233098994344
 20
914.5112763555736
 30
0.0
  0
SPLINE
  5
217
330
3C
100
AcDbEntity
  8
Layer 1
 62
     7
370
    15
100
AcDbSpline
210
0.0
220
0.0
230
1.0
 70
     8
 71
     3
 72
     8
 73
     4
 74
     0
 42
0.0000000001
 43
0.0000000001
 40
0.0
 40
0.0
 40
0.0
 40
0.0
 40
1.0
 40
1.0
 40
1.0
 40
1.0
 10
419.6233098994344
 20
914.5112763555736
 30
0.0
 10
420.0553248732848
 20
914.2313623473971
 30
0.0
 10
420.4745929938397
 20
913.9231985562415
 30
0.0
 10
420.871123484192
 20
913.59539772082
 30
0.0
  0
SPLINE
  5
218
330
3C
100
AcDbEntity
  8
Layer 1
 62
     7
370
    15
100
AcDbSpline
210
0.0
220
0.0
230
1.0
 70
     8
 71
     3
 72
     8
 73
     4
 74
     0
 42
0.0000000001
 43
0.0000000001
 40
0.0
 40
0.0
 40
0.0
 40
0.0
 40
1.0
 40
1.0
 40
1.0
 40
1.0
 10
420.871123484192
 20
913.59539772082
 30
0.0
 10
421.2679984840927
 20
913.2675968853985
 30
0.0
 10
421.644202911082
 20
912.9186087127426
 30
0.0
 10
421.9983587269657
 20
912.5484332028525
 30
0.0
  0
SPLINE
  5
219
330
3C
100
AcDbEntity
  8
Layer 1
 62
     7
370
    15
100
AcDbSpline
210
0.0
220
0.0
230
1.0
 70
     8
 71
     3
 72
     8
 73
     4
 74
     0
 42
0.0000000001
 43
0.0000000001
 40
0.0
 40
0.0
 40
0.0
 40
0.0
 40
1.0
 40
1.0
 40
1.0
 40
1.0
 10
421.9983587269657
 20
912.5484332028525
 30
0.0
 10
422.1764701635531
 20
912.3634315752946
 30
0.0
 10
422.3487249378156
 20
912.1732623045089
 30
0.0
 10
422.5158120688502
 20
911.9774086261724
 30
0.0
  0
SPLINE
  5
21A
330
3C
100
AcDbEntity
  8
Layer 1
 62
     7
370
    15
100
AcDbSpline
210
0.0
220
0.0
230
1.0
 70
     8
 71
     3
 72
     8
 73
     4
 74
     0
 42
0.0000000001
 43
0.0000000001
 40
0.0
 40
0.0
 40
0.0
 40
0.0
 40
1.0
 40
1.0
 40
1.0
 40
1.0
 10
422.5158120688502
 20
911.9774086261724
 30
0.0
 10
422.5998723986903
 20
911.8795679143913
 30
0.0
 10
422.6822101807878
 20
911.7805214191903
 30
0.0
 10
422.7628254151426
 20
911.679924631021
 30
0.0
  0
SPLINE
  5
21B
330
3C
100
AcDbEntity
  8
Layer 1
 62
     7
370
    15
100
AcDbSpline
210
0.0
220
0.0
230
1.0
 70
     8
 71
     3
 72
     8
 73
     4
 74
     0
 42
0.0000000001
 43
0.0000000001
 40
0.0
 40
0.0
 40
0.0
 40
0.0
 40
1.0
 40
1.0
 40
1.0
 40
1.0
 10
422.7628254151426
 20
911.679924631021
 30
0.0
 10
422.843785159046
 20
911.5793278428517
 30
0.0
 10
422.9244003934008
 20
911.476491742617
 30
0.0
 10
423.001915041819
 20
911.3741724067052
 30
0.0
  0
POLYLINE
  5
21C
330
3C
100
AcDbEntity
  8
Layer 1
 62
     7
370
    15
100
AcDb2dPolyline
 66
     1
 10
0.0
 20
0.0
 30
0.0
  0
VERTEX
  5
21D
330
21C
100
AcDbEntity
  8
Layer 1
 62
     7
370
    15
100
AcDbVertex
100
AcDb2dVertex
 10
318.3302679325702
 20
916.656709569013
 30
0.0
  0
VERTEX
  5
21E
330
21C
100
AcDbEntity
  8
Layer 1
 62
     7
370
    15
100
AcDbVertex
100
AcDb2dVertex
 10
412.3300427571606
 20
916.656709569013
 30
0.0
  0
SEQEND
  5
21F
330
21C
100
AcDbEntity
  8
Layer 1
370
    15
  0
SPLINE
  5
220
330
3C
100
AcDbEntity
  8
Layer 1
 62
     7
370
    15
100
AcDbSpline
210
0.0
220
0.0
230
1.0
 70
     8
 71
     3
 72
     8
 73
     4
 74
     0
 42
0.0000000001
 43
0.0000000001
 40
0.0
 40
0.0
 40
0.0
 40
0.0
 40
1.0
 40
1.0
 40
1.0
 40
1.0
 10
307.657878883589
 20
911.3741724067052
 30
0.0
 10
307.7352212772329
 20
911.476491742617
 30
0.0
 10
307.8158365115877
 20
911.5793278428517
 30
0.0
 10
307.8969685102654
 20
911.679924631021
 30
0.0
  0
SPLINE
  5
221
330
3C
100
AcDbEntity
  8
Layer 1
 62
     7
370
    15
100
AcDbSpline
210
0.0
220
0.0
230
1.0
 70
     8
 71
     3
 72
     8
 73
     4
 74
     0
 42
0.0000000001
 43
0.0000000001
 40
0.0
 40
0.0
 40
0.0
 40
0.0
 40
1.0
 40
1.0
 40
1.0
 40
1.0
 10
307.8969685102654
 20
911.679924631021
 30
0.0
 10
307.978100508943
 20
911.7805214191903
 30
0.0
 10
308.0604382910404
 20
911.8795679143913
 30
0.0
 10
308.1436373470092
 20
911.9774086261724
 30
0.0
  0
SPLINE
  5
222
330
3C
100
AcDbEntity
  8
Layer 1
 62
     7
370
    15
100
AcDbSpline
210
0.0
220
0.0
230
1.0
 70
     8
 71
     3
 72
     8
 73
     4
 74
     0
 42
0.0000000001
 43
0.0000000001
 40
0.0
 40
0.0
 40
0.0
 40
0.0
 40
1.0
 40
1.0
 40
1.0
 40
1.0
 10
308.1436373470092
 20
911.9774086261724
 30
0.0
 10
308.3112412423666
 20
912.1732623045089
 30
0.0
 10
308.4838405261777
 20
912.3637760848432
 30
0.0
 10
308.6616074532166
 20
912.5489499671753
 30
0.0
  0
SPLINE
  5
223
330
3C
100
AcDbEntity
  8
Layer 1
 62
     7
370
    15
100
AcDbSpline
210
0.0
220
0.0
230
1.0
 70
     8
 71
     3
 72
     8
 73
     4
 74
     0
 42
0.0000000001
 43
0.0000000001
 40
0.0
 40
0.0
 40
0.0
 40
0.0
 40
1.0
 40
1.0
 40
1.0
 40
1.0
 10
308.6616074532166
 20
912.5489499671753
 30
0.0
 10
309.0167967977458
 20
912.9191254770654
 30
0.0
 10
309.3926567151865
 20
913.2684581592697
 30
0.0
 10
309.7898762246359
 20
913.5962589946913
 30
0.0
  0
SPLINE
  5
224
330
3C
100
AcDbEntity
  8
Layer 1
 62
     7
370
    15
100
AcDbSpline
210
0.0
220
0.0
230
1.0
 70
     8
 71
     3
 72
     8
 73
     4
 74
     0
 42
0.0000000001
 43
0.0000000001
 40
0.0
 40
0.0
 40
0.0
 40
0.0
 40
1.0
 40
1.0
 40
1.0
 40
1.0
 10
309.7898762246359
 20
913.5962589946913
 30
0.0
 10
310.1867512245366
 20
913.9244043396614
 30
0.0
 10
310.6070528737371
 20
914.2325681308168
 30
0.0
 10
311.0383788284904
 20
914.512137629445
 30
0.0
  0
SPLINE
  5
225
330
3C
100
AcDbEntity
  8
Layer 1
 62
     7
370
    15
100
AcDbSpline
210
0.0
220
0.0
230
1.0
 70
     8
 71
     3
 72
     8
 73
     4
 74
     0
 42
0.0000000001
 43
0.0000000001
 40
0.0
 40
0.0
 40
0.0
 40
0.0
 40
1.0
 40
1.0
 40
1.0
 40
1.0
 10
311.0383788284904
 20
914.512137629445
 30
0.0
 10
311.4700492927922
 20
914.791707128073
 30
0.0
 10
311.914811119938
 20
915.0445771366902
 30
0.0
 10
312.3730088194762
 20
915.2712644196197
 30
0.0
  0
SPLINE
  5
226
330
3C
100
AcDbEntity
  8
Layer 1
 62
     7
370
    15
100
AcDbSpline
210
0.0
220
0.0
230
1.0
 70
     8
 71
     3
 72
     8
 73
     4
 74
     0
 42
0.0000000001
 43
0.0000000001
 40
0.0
 40
0.0
 40
0.0
 40
0.0
 40
1.0
 40
1.0
 40
1.0
 40
1.0
 10
312.3730088194762
 20
915.2712644196197
 30
0.0
 10
312.8308620094659
 20
915.4979517025491
 30
0.0
 10
313.3021510718481
 20
915.6988007693392
 30
0.0
 10
313.7865314970742
 20
915.8727780913443
 30
0.0
  0
SPLINE
  5
227
330
3C
100
AcDbEntity
  8
Layer 1
 62
     7
370
    15
100
AcDbSpline
210
0.0
220
0.0
230
1.0
 70
     8
 71
     3
 72
     8
 73
     4
 74
     0
 42
0.0000000001
 43
0.0000000001
 40
0.0
 40
0.0
 40
0.0
 40
0.0
 40
1.0
 40
1.0
 40
1.0
 40
1.0
 10
313.7865314970742
 20
915.8727780913443
 30
0.0
 10
314.2709119223003
 20
916.0465831585752
 30
0.0
 10
314.7704507676615
 20
916.1933442262468
 30
0.0
 10
315.2717121607654
 20
916.3099607084225
 30
0.0
  0
SPLINE
  5
228
330
3C
100
AcDbEntity
  8
Layer 1
 62
     7
370
    15
100
AcDbSpline
210
0.0
220
0.0
230
1.0
 70
     8
 71
     3
 72
     8
 73
     4
 74
     0
 42
0.0000000001
 43
0.0000000001
 40
0.0
 40
0.0
 40
0.0
 40
0.0
 40
1.0
 40
1.0
 40
1.0
 40
1.0
 10
315.2717121607654
 20
916.3099607084225
 30
0.0
 10
316.2738904374246
 20
916.5428491632255
 30
0.0
 10
317.2936387010586
 20
916.656709569013
 30
0.0
 10
318.3302679325702
 20
916.656709569013
 30
0.0
  0
SPLINE
  5
229
330
3C
100
AcDbEntity
  8
Layer 1
 62
     7
370
    15
100
AcDbSpline
210
0.0
220
0.0
230
1.0
 70
     8
 71
     3
 72
     8
 73
     4
 74
     0
 42
0.0000000001
 43
0.0000000001
 40
0.0
 40
0.0
 40
0.0
 40
0.0
 40
1.0
 40
1.0
 40
1.0
 40
1.0
 10
419.8689452075328
 20
798.2007186589568
 30
0.0
 10
419.7314858976713
 20
798.1075288260807
 30
0.0
 10
419.5892034541305
 20
798.0148557575276
 30
0.0
 10
419.4479545392352
 20
797.9258000392339
 30
0.0
  0
SPLINE
  5
22A
330
3C
100
AcDbEntity
  8
Layer 1
 62
     7
370
    15
100
AcDbSpline
210
0.0
220
0.0
230
1.0
 70
     8
 71
     3
 72
     8
 73
     4
 74
     0
 42
0.0000000001
 43
0.0000000001
 40
0.0
 40
0.0
 40
0.0
 40
0.0
 40
1.0
 40
1.0
 40
1.0
 40
1.0
 10
419.4479545392352
 20
797.9258000392339
 30
0.0
 10
419.3063611147915
 20
797.837261085263
 30
0.0
 10
419.1633896521536
 20
797.7511336981318
 30
0.0
 10
419.0186956417731
 20
797.6679346421629
 30
0.0
  0
SPLINE
  5
22B
330
3C
100
AcDbEntity
  8
Layer 1
 62
     7
370
    15
100
AcDbSpline
210
0.0
220
0.0
230
1.0
 70
     8
 71
     3
 72
     8
 73
     4
 74
     0
 42
0.0000000001
 43
0.0000000001
 40
0.0
 40
0.0
 40
0.0
 40
0.0
 40
1.0
 40
1.0
 40
1.0
 40
1.0
 10
419.0186956417731
 20
797.6679346421629
 30
0.0
 10
418.7299966401092
 20
797.5018810397738
 30
0.0
 10
418.4361299952174
 20
797.3468517429376
 30
0.0
 10
418.1360621784521
 20
797.2028467516542
 30
0.0
  0
SPLINE
  5
22C
330
3C
100
AcDbEntity
  8
Layer 1
 62
     7
370
    15
100
AcDbSpline
210
0.0
220
0.0
230
1.0
 70
     8
 71
     3
 72
     8
 73
     4
 74
     0
 42
0.0000000001
 43
0.0000000001
 40
0.0
 40
0.0
 40
0.0
 40
0.0
 40
1.0
 40
1.0
 40
1.0
 40
1.0
 10
418.1360621784521
 20
797.2028467516542
 30
0.0
 10
417.5369600735672
 20
796.9150090238616
 30
0.0
 10
416.9171873957707
 20
796.6712685182802
 30
0.0
 10
416.2743325782231
 20
796.473692292201
 30
0.0
  0
SPLINE
  5
22D
330
3C
100
AcDbEntity
  8
Layer 1
 62
     7
370
    15
100
AcDbSpline
210
0.0
220
0.0
230
1.0
 70
     8
 71
     3
 72
     8
 73
     4
 74
     0
 42
0.0000000001
 43
0.0000000001
 40
0.0
 40
0.0
 40
0.0
 40
0.0
 40
1.0
 40
1.0
 40
1.0
 40
1.0
 10
416.2743325782231
 20
796.473692292201
 30
0.0
 10
414.9896564717735
 20
796.0785398400429
 30
0.0
 10
413.674319015505
 20
795.8821693973837
 30
0.0
 10
412.3300427571606
 20
795.8821693973837
 30
0.0
  0
SPLINE
  5
22E
330
3C
100
AcDbEntity
  8
Layer 1
 62
     7
370
    15
100
AcDbSpline
210
0.0
220
0.0
230
1.0
 70
     8
 71
     3
 72
     8
 73
     4
 74
     0
 42
0.0000000001
 43
0.0000000001
 40
0.0
 40
0.0
 40
0.0
 40
0.0
 40
1.0
 40
1.0
 40
1.0
 40
1.0
 10
318.3302679325702
 20
795.8821693973837
 30
0.0
 10
316.9859916742257
 20
795.8821693973837
 30
0.0
 10
315.6709987275059
 20
796.0785398400429
 30
0.0
 10
314.3863226210562
 20
796.473692292201
 30
0.0
  0
SPLINE
  5
22F
330
3C
100
AcDbEntity
  8
Layer 1
 62
     7
370
    15
100
AcDbSpline
210
0.0
220
0.0
230
1.0
 70
     8
 71
     3
 72
     8
 73
     4
 74
     0
 42
0.0000000001
 43
0.0000000001
 40
0.0
 40
0.0
 40
0.0
 40
0.0
 40
1.0
 40
1.0
 40
1.0
 40
1.0
 10
314.3863226210562
 20
796.473692292201
 30
0.0
 10
313.7441568226056
 20
796.6709240087316
 30
0.0
 10
313.1230061066151
 20
796.914664514313
 30
0.0
 10
312.5239040017302
 20
797.2025022421057
 30
0.0
  0
SPLINE
  5
230
330
3C
100
AcDbEntity
  8
Layer 1
 62
     7
370
    15
100
AcDbSpline
210
0.0
220
0.0
230
1.0
 70
     8
 71
     3
 72
     8
 73
     4
 74
     0
 42
0.0000000001
 43
0.0000000001
 40
0.0
 40
0.0
 40
0.0
 40
0.0
 40
1.0
 40
1.0
 40
1.0
 40
1.0
 10
312.5239040017302
 20
797.2025022421057
 30
0.0
 10
312.2241806945134
 20
797.3463349786149
 30
0.0
 10
311.9299695400731
 20
797.5018810397738
 30
0.0
 10
311.6409260288606
 20
797.6679346421629
 30
0.0
  0
SPLINE
  5
231
330
3C
100
AcDbEntity
  8
Layer 1
 62
     7
370
    15
100
AcDbSpline
210
0.0
220
0.0
230
1.0
 70
     8
 71
     3
 72
     8
 73
     4
 74
     0
 42
0.0000000001
 43
0.0000000001
 40
0.0
 40
0.0
 40
0.0
 40
0.0
 40
1.0
 40
1.0
 40
1.0
 40
1.0
 10
311.6409260288606
 20
797.6679346421629
 30
0.0
 10
311.4965765280286
 20
797.7511336981318
 30
0.0
 10
311.3539495749393
 20
797.837261085263
 30
0.0
 10
311.212011640947
 20
797.9258000392339
 30
0.0
  0
SPLINE
  5
232
330
3C
100
AcDbEntity
  8
Layer 1
 62
     7
370
    15
100
AcDbSpline
210
0.0
220
0.0
230
1.0
 70
     8
 71
     3
 72
     8
 73
     4
 74
     0
 42
0.0000000001
 43
0.0000000001
 40
0.0
 40
0.0
 40
0.0
 40
0.0
 40
1.0
 40
1.0
 40
1.0
 40
1.0
 10
311.212011640947
 20
797.9258000392339
 30
0.0
 10
311.0704182165032
 20
798.0148557575276
 30
0.0
 10
310.928480282511
 20
798.1075288260807
 30
0.0
 10
310.790676463101
 20
798.2007186589568
 30
0.0
  0
POLYLINE
  5
233
330
3C
100
AcDbEntity
  8
Layer 1
 62
     7
370
    15
100
AcDb2dPolyline
 66
     1
 10
0.0
 20
0.0
 30
0.0
  0
VERTEX
  5
234
330
233
100
AcDbEntity
  8
Layer 1
 62
     7
370
    15
100
AcDbVertex
100
AcDb2dVertex
 10
412.3300427571606
 20
795.8821693973837
 30
0.0
  0
VERTEX
  5
235
330
233
100
AcDbEntity
  8
Layer 1
 62
     7
370
    15
100
AcDbVertex
100
AcDb2dVertex
 10
318.3302679325702
 20
795.8821693973837
 30
0.0
  0
SEQEND
  5
236
330
233
100
AcDbEntity
  8
Layer 1
370
    15
  0
POLYLINE
  5
237
330
3C
100
AcDbEntity
  8
Layer 1
 62
     7
370
    15
100
AcDb2dPolyline
 66
     1
 10
0.0
 20
0.0
 30
0.0
  0
VERTEX
  5
238
330
237
100
AcDbEntity
  8
Layer 1
 62
     7
370
    15
100
AcDbVertex
100
AcDb2dVertex
 10
320.8300292166675
 20
890.2805417696175
 30
0.0
  0
VERTEX
  5
239
330
237
100
AcDbEntity
  8
Layer 1
 62
     7
370
    15
100
AcDbVertex
100
AcDb2dVertex
 10
320.8300292166675
 20
821.2806190980652
 30
0.0
  0
SEQEND
  5
23A
330
237
100
AcDbEntity
  8
Layer 1
370
    15
  0
SPLINE
  5
23B
330
3C
100
AcDbEntity
  8
Layer 1
 62
     7
370
    15
100
AcDbSpline
210
0.0
220
0.0
230
1.0
 70
     8
 71
     3
 72
     8
 73
     4
 74
     0
 42
0.0000000001
 43
0.0000000001
 40
0.0
 40
0.0
 40
0.0
 40
0.0
 40
1.0
 40
1.0
 40
1.0
 40
1.0
 10
320.8300292166675
 20
821.2806190980652
 30
0.0
 10
320.8300292166675
 20
815.7576142708871
 30
0.0
 10
325.3076198188467
 20
811.2807126878049
 30
0.0
 10
330.8304523912507
 20
811.2807126878049
 30
0.0
  0
POLYLINE
  5
23C
330
3C
100
AcDbEntity
  8
Layer 1
 62
     7
370
    15
100
AcDb2dPolyline
 66
     1
 10
0.0
 20
0.0
 30
0.0
  0
VERTEX
  5
23D
330
23C
100
AcDbEntity
  8
Layer 1
 62
     7
370
    15
100
AcDbVertex
100
AcDb2dVertex
 10
330.8304523912507
 20
811.2807126878049
 30
0.0
  0
VERTEX
  5
23E
330
23C
100
AcDbEntity
  8
Layer 1
 62
     7
370
    15
100
AcDbVertex
100
AcDb2dVertex
 10
399.8298582984801
 20
811.2807126878049
 30
0.0
  0
SEQEND
  5
23F
330
23C
100
AcDbEntity
  8
Layer 1
370
    15
  0
SPLINE
  5
240
330
3C
100
AcDbEntity
  8
Layer 1
 62
     7
370
    15
100
AcDbSpline
210
0.0
220
0.0
230
1.0
 70
     8
 71
     3
 72
     8
 73
     4
 74
     0
 42
0.0000000001
 43
0.0000000001
 40
0.0
 40
0.0
 40
0.0
 40
0.0
 40
1.0
 40
1.0
 40
1.0
 40
1.0
 10
399.8298582984801
 20
811.2807126878049
 30
0.0
 10
405.3530353804326
 20
811.2807126878049
 30
0.0
 10
409.8302814730633
 20
815.7576142708871
 30
0.0
 10
409.8302814730633
 20
821.2806190980652
 30
0.0
  0
POLYLINE
  5
241
330
3C
100
AcDbEntity
  8
Layer 1
 62
     7
370
    15
100
AcDb2dPolyline
 66
     1
 10
0.0
 20
0.0
 30
0.0
  0
VERTEX
  5
242
330
241
100
AcDbEntity
  8
Layer 1
 62
     7
370
    15
100
AcDbVertex
100
AcDb2dVertex
 10
409.8302814730633
 20
890.2805417696175
 30
0.0
  0
VERTEX
  5
243
330
241
100
AcDbEntity
  8
Layer 1
 62
     7
370
    15
100
AcDbVertex
100
AcDb2dVertex
 10
409.8302814730633
 20
821.2806190980652
 30
0.0
  0
SEQEND
  5
244
330
241
100
AcDbEntity
  8
Layer 1
370
    15
  0
SPLINE
  5
245
330
3C
100
AcDbEntity
  8
Layer 1
 62
     7
370
    15
100
AcDbSpline
210
0.0
220
0.0
230
1.0
 70
     8
 71
     3
 72
     8
 73
     4
 74
     0
 42
0.0000000001
 43
0.0000000001
 40
0.0
 40
0.0
 40
0.0
 40
0.0
 40
1.0
 40
1.0
 40
1.0
 40
1.0
 10
409.8302814730633
 20
890.2805417696175
 30
0.0
 10
409.8302814730633
 20
895.8030298324729
 30
0.0
 10
405.3530353804326
 20
900.2804481798778
 30
0.0
 10
399.8298582984801
 20
900.2804481798778
 30
0.0
  0
POLYLINE
  5
246
330
3C
100
AcDbEntity
  8
Layer 1
 62
     7
370
    15
100
AcDb2dPolyline
 66
     1
 10
0.0
 20
0.0
 30
0.0
  0
VERTEX
  5
247
330
246
100
AcDbEntity
  8
Layer 1
 62
     7
370
    15
100
AcDbVertex
100
AcDb2dVertex
 10
330.8304523912507
 20
900.2804481798778
 30
0.0
  0
VERTEX
  5
248
330
246
100
AcDbEntity
  8
Layer 1
 62
     7
370
    15
100
AcDbVertex
100
AcDb2dVertex
 10
399.8298582984801
 20
900.2804481798778
 30
0.0
  0
SEQEND
  5
249
330
246
100
AcDbEntity
  8
Layer 1
370
    15
  0
SPLINE
  5
24A
330
3C
100
AcDbEntity
  8
Layer 1
 62
     7
370
    15
100
AcDbSpline
210
0.0
220
0.0
230
1.0
 70
     8
 71
     3
 72
     8
 73
     4
 74
     0
 42
0.0000000001
 43
0.0000000001
 40
0.0
 40
0.0
 40
0.0
 40
0.0
 40
1.0
 40
1.0
 40
1.0
 40
1.0
 10
330.8304523912507
 20
900.2804481798778
 30
0.0
 10
325.3076198188467
 20
900.2804481798778
 30
0.0
 10
320.8300292166675
 20
895.8030298324729
 30
0.0
 10
320.8300292166675
 20
890.2805417696175
 30
0.0
  0
POLYLINE
  5
24B
330
3C
100
AcDbEntity
  8
Layer 1
370
     0
100
AcDb2dPolyline
 66
     1
 10
0.0
 20
0.0
 30
0.0
  0
VERTEX
  5
24C
330
24B
100
AcDbEntity
  8
Layer 1
370
     0
100
AcDbVertex
100
AcDb2dVertex
 10
-19.66942816348542
 20
855.78032205168
 30
0.0
  0
VERTEX
  5
24D
330
24B
100
AcDbEntity
  8
Layer 1
370
     0
100
AcDbVertex
100
AcDb2dVertex
 10
-24.66963975077704
 20
885.7803857920098
 30
0.0
  0
VERTEX
  5
24E
330
24B
100
AcDbEntity
  8
Layer 1
370
     0
100
AcDbVertex
100
AcDb2dVertex
 10
-14.6697333405166
 20
885.7803857920098
 30
0.0
  0
SEQEND
  5
24F
330
24B
100
AcDbEntity
  8
Layer 1
370
     0
  0
HATCH
  5
250
330
3C
100
AcDbEntity
  8
Layer 1
 62
     7
100
AcDbHatch
 10
0.0
 20
0.0
 30
0.0
210
0.0
220
0.0
230
1.0
  2
SOLID
 70
     1
 71
     0
 91
        1
 92
        1
 93
        3
 72
     1
 10
-19.66942816348542
 20
855.78032205168
 11
-24.66963975077704
 21
885.7803857920098
 72
     1
 10
-24.66963975077704
 20
885.7803857920098
 11
-14.6697333405166
 21
885.7803857920098
 72
     1
 10
-14.6697333405166
 20
885.7803857920098
 11
-19.66942816348542
 21
855.78032205168
 97
        0
 75
     2
 76
     1
 98
        0
  0
POLYLINE
  5
251
330
3C
100
AcDbEntity
  8
Layer 1
370
     0
100
AcDb2dPolyline
 66
     1
 10
0.0
 20
0.0
 30
0.0
  0
VERTEX
  5
252
330
251
100
AcDbEntity
  8
Layer 1
370
     0
100
AcDbVertex
100
AcDb2dVertex
 10
-19.66942816348542
 20
1029.280326077315
 30
0.0
  0
VERTEX
  5
253
330
251
100
AcDbEntity
  8
Layer 1
370
     0
100
AcDbVertex
100
AcDb2dVertex
 10
-14.6697333405166
 20
999.2804345917598
 30
0.0
  0
VERTEX
  5
254
330
251
100
AcDbEntity
  8
Layer 1
370
     0
100
AcDbVertex
100
AcDb2dVertex
 10
-24.66963975077704
 20
999.2804345917598
 30
0.0
  0
SEQEND
  5
255
330
251
100
AcDbEntity
  8
Layer 1
370
     0
  0
HATCH
  5
256
330
3C
100
AcDbEntity
  8
Layer 1
 62
     7
100
AcDbHatch
 10
0.0
 20
0.0
 30
0.0
210
0.0
220
0.0
230
1.0
  2
SOLID
 70
     1
 71
     0
 91
        1
 92
        1
 93
        3
 72
     1
 10
-19.66942816348542
 20
1029.280326077315
 11
-14.6697333405166
 21
999.2804345917598
 72
     1
 10
-14.6697333405166
 20
999.2804345917598
 11
-24.66963975077704
 21
999.2804345917598
 72
     1
 10
-24.66963975077704
 20
999.2804345917598
 11
-19.66942816348542
 21
1029.280326077315
 97
        0
 75
     2
 76
     1
 98
        0
  0
POLYLINE
  5
257
330
3C
100
AcDbEntity
  8
Layer 1
 62
     7
370
    25
100
AcDb2dPolyline
 66
     1
 10
0.0
 20
0.0
 30
0.0
  0
VERTEX
  5
258
330
257
100
AcDbEntity
  8
Layer 1
 62
     7
370
    25
100
AcDbVertex
100
AcDb2dVertex
 10
108.6221381021847
 20
855.78032205168
 30
0.0
  0
VERTEX
  5
259
330
257
100
AcDbEntity
  8
Layer 1
 62
     7
370
    25
100
AcDbVertex
100
AcDb2dVertex
 10
-29.66967908329439
 20
855.78032205168
 30
0.0
  0
SEQEND
  5
25A
330
257
100
AcDbEntity
  8
Layer 1
370
    25
  0
POLYLINE
  5
25B
330
3C
100
AcDbEntity
  8
Layer 1
 62
     7
370
    25
100
AcDb2dPolyline
 66
     1
 10
0.0
 20
0.0
 30
0.0
  0
VERTEX
  5
25C
330
25B
100
AcDbEntity
  8
Layer 1
 62
     7
370
    25
100
AcDbVertex
100
AcDb2dVertex
 10
109.4403482799316
 20
1029.280326077315
 30
0.0
  0
VERTEX
  5
25D
330
25B
100
AcDbEntity
  8
Layer 1
 62
     7
370
    25
100
AcDbVertex
100
AcDb2dVertex
 10
-29.66967908329439
 20
1029.280326077315
 30
0.0
  0
SEQEND
  5
25E
330
25B
100
AcDbEntity
  8
Layer 1
370
    25
  0
POLYLINE
  5
25F
330
3C
100
AcDbEntity
  8
Layer 1
 62
     7
370
    25
100
AcDb2dPolyline
 66
     1
 10
0.0
 20
0.0
 30
0.0
  0
VERTEX
  5
260
330
25F
100
AcDbEntity
  8
Layer 1
 62
     7
370
    25
100
AcDbVertex
100
AcDb2dVertex
 10
-19.66942816348542
 20
855.78032205168
 30
0.0
  0
VERTEX
  5
261
330
25F
100
AcDbEntity
  8
Layer 1
 62
     7
370
    25
100
AcDbVertex
100
AcDb2dVertex
 10
-19.66942816348542
 20
737.6924395942227
 30
0.0
  0
SEQEND
  5
262
330
25F
100
AcDbEntity
  8
Layer 1
370
    25
  0
POLYLINE
  5
263
330
3C
100
AcDbEntity
  8
Layer 1
 62
     7
370
    25
100
AcDb2dPolyline
 66
     1
 10
0.0
 20
0.0
 30
0.0
  0
VERTEX
  5
264
330
263
100
AcDbEntity
  8
Layer 1
 62
     7
370
    25
100
AcDbVertex
100
AcDb2dVertex
 10
-19.66942816348542
 20
855.78032205168
 30
0.0
  0
VERTEX
  5
265
330
263
100
AcDbEntity
  8
Layer 1
 62
     7
370
    25
100
AcDbVertex
100
AcDb2dVertex
 10
-19.66942816348542
 20
1029.280326077315
 30
0.0
  0
SEQEND
  5
266
330
263
100
AcDbEntity
  8
Layer 1
370
    25
  0
POLYLINE
  5
267
330
3C
100
AcDbEntity
  8
Layer 1
 62
     7
370
    25
100
AcDb2dPolyline
 66
     1
 10
0.0
 20
0.0
 30
0.0
  0
VERTEX
  5
268
330
267
100
AcDbEntity
  8
Layer 1
 62
     7
370
    25
100
AcDbVertex
100
AcDb2dVertex
 10
-31.90675183664137
 20
737.6924395942227
 30
0.0
  0
VERTEX
  5
269
330
267
100
AcDbEntity
  8
Layer 1
 62
     7
370
    25
100
AcDbVertex
100
AcDb2dVertex
 10
-31.90675183664137
 20
748.2759451796845
 30
0.0
  0
SEQEND
  5
26A
330
267
100
AcDbEntity
  8
Layer 1
370
    25
  0
POLYLINE
  5
26B
330
3C
100
AcDbEntity
  8
Layer 1
 62
     7
370
    25
100
AcDb2dPolyline
 66
     1
 10
0.0
 20
0.0
 30
0.0
  0
VERTEX
  5
26C
330
26B
100
AcDbEntity
  8
Layer 1
 62
     7
370
    25
100
AcDbVertex
100
AcDb2dVertex
 10
-31.90675183664137
 20
742.9841062595665
 30
0.0
  0
VERTEX
  5
26D
330
26B
100
AcDbEntity
  8
Layer 1
 62
     7
370
    25
100
AcDbVertex
100
AcDb2dVertex
 10
-74.24008515939137
 20
742.9841062595665
 30
0.0
  0
SEQEND
  5
26E
330
26B
100
AcDbEntity
  8
Layer 1
370
    25
  0
POLYLINE
  5
26F
330
3C
100
AcDbEntity
  8
Layer 1
 62
     7
370
    25
100
AcDb2dPolyline
 66
     1
 10
0.0
 20
0.0
 30
0.0
  0
VERTEX
  5
270
330
26F
100
AcDbEntity
  8
Layer 1
 62
     7
370
    25
100
AcDbVertex
100
AcDb2dVertex
 10
-74.24008515939137
 20
742.9841062595665
 30
0.0
  0
VERTEX
  5
271
330
26F
100
AcDbEntity
  8
Layer 1
 62
     7
370
    25
100
AcDbVertex
100
AcDb2dVertex
 10
-67.18435735082544
 20
737.6924395942227
 30
0.0
  0
SEQEND
  5
272
330
26F
100
AcDbEntity
  8
Layer 1
370
    25
  0
POLYLINE
  5
273
330
3C
100
AcDbEntity
  8
Layer 1
 62
     7
370
    25
100
AcDb2dPolyline
 66
     1
 10
0.0
 20
0.0
 30
0.0
  0
VERTEX
  5
274
330
273
100
AcDbEntity
  8
Layer 1
 62
     7
370
    25
100
AcDbVertex
100
AcDb2dVertex
 10
-74.24008515939137
 20
758.8592785103721
 30
0.0
  0
VERTEX
  5
275
330
273
100
AcDbEntity
  8
Layer 1
 62
     7
370
    25
100
AcDbVertex
100
AcDb2dVertex
 10
-74.24008515939137
 20
780.0257729169728
 30
0.0
  0
SEQEND
  5
276
330
273
100
AcDbEntity
  8
Layer 1
370
    25
  0
POLYLINE
  5
277
330
3C
100
AcDbEntity
  8
Layer 1
 62
     7
370
    25
100
AcDb2dPolyline
 66
     1
 10
0.0
 20
0.0
 30
0.0
  0
VERTEX
  5
278
330
277
100
AcDbEntity
  8
Layer 1
 62
     7
370
    25
100
AcDbVertex
100
AcDb2dVertex
 10
-74.24008515939137
 20
780.0257729169728
 30
0.0
  0
VERTEX
  5
279
330
277
100
AcDbEntity
  8
Layer 1
 62
     7
370
    25
100
AcDbVertex
100
AcDb2dVertex
 10
-31.90675183664137
 20
764.15111743049
 30
0.0
  0
SEQEND
  5
27A
330
277
100
AcDbEntity
  8
Layer 1
370
    25
  0
POLYLINE
  5
27B
330
3C
100
AcDbEntity
  8
Layer 1
 62
     7
370
    25
100
AcDb2dPolyline
 66
     1
 10
0.0
 20
0.0
 30
0.0
  0
VERTEX
  5
27C
330
27B
100
AcDbEntity
  8
Layer 1
 62
     7
370
    25
100
AcDbVertex
100
AcDb2dVertex
 10
-31.90675183664137
 20
806.4839339889172
 30
0.0
  0
VERTEX
  5
27D
330
27B
100
AcDbEntity
  8
Layer 1
 62
     7
370
    25
100
AcDbVertex
100
AcDb2dVertex
 10
-74.24008515939137
 20
806.4839339889172
 30
0.0
  0
SEQEND
  5
27E
330
27B
100
AcDbEntity
  8
Layer 1
370
    25
  0
POLYLINE
  5
27F
330
3C
100
AcDbEntity
  8
Layer 1
 62
     7
370
    25
100
AcDb2dPolyline
 66
     1
 10
0.0
 20
0.0
 30
0.0
  0
VERTEX
  5
280
330
27F
100
AcDbEntity
  8
Layer 1
 62
     7
370
    25
100
AcDbVertex
100
AcDb2dVertex
 10
-74.24008515939137
 20
806.4839339889172
 30
0.0
  0
VERTEX
  5
281
330
27F
100
AcDbEntity
  8
Layer 1
 62
     7
370
    25
100
AcDbVertex
100
AcDb2dVertex
 10
-46.0178629442247
 20
790.6092785024346
 30
0.0
  0
SEQEND
  5
282
330
27F
100
AcDbEntity
  8
Layer 1
370
    25
  0
POLYLINE
  5
283
330
3C
100
AcDbEntity
  8
Layer 1
 62
     7
370
    25
100
AcDb2dPolyline
 66
     1
 10
0.0
 20
0.0
 30
0.0
  0
VERTEX
  5
284
330
283
100
AcDbEntity
  8
Layer 1
 62
     7
370
    25
100
AcDbVertex
100
AcDb2dVertex
 10
-46.0178629442247
 20
790.6092785024346
 30
0.0
  0
VERTEX
  5
285
330
283
100
AcDbEntity
  8
Layer 1
 62
     7
370
    25
100
AcDbVertex
100
AcDb2dVertex
 10
-46.0178629442247
 20
811.7757729090353
 30
0.0
  0
SEQEND
  5
286
330
283
100
AcDbEntity
  8
Layer 1
370
    25
  0
POLYLINE
  5
287
330
3C
100
AcDbEntity
  8
Layer 1
370
     0
100
AcDb2dPolyline
 66
     1
 10
0.0
 20
0.0
 30
0.0
  0
VERTEX
  5
288
330
287
100
AcDbEntity
  8
Layer 1
370
     0
100
AcDbVertex
100
AcDb2dVertex
 10
365.3303275996396
 20
460.8514565905163
 30
0.0
  0
VERTEX
  5
289
330
287
100
AcDbEntity
  8
Layer 1
370
     0
100
AcDbVertex
100
AcDb2dVertex
 10
395.3302190851953
 20
465.8513236682594
 30
0.0
  0
VERTEX
  5
28A
330
287
100
AcDbEntity
  8
Layer 1
370
     0
100
AcDbVertex
100
AcDb2dVertex
 10
395.3302190851953
 20
455.8519340223218
 30
0.0
  0
SEQEND
  5
28B
330
287
100
AcDbEntity
  8
Layer 1
370
     0
  0
HATCH
  5
28C
330
3C
100
AcDbEntity
  8
Layer 1
 62
     7
100
AcDbHatch
 10
0.0
 20
0.0
 30
0.0
210
0.0
220
0.0
230
1.0
  2
SOLID
 70
     1
 71
     0
 91
        1
 92
        1
 93
        3
 72
     1
 10
365.3303275996396
 20
460.8514565905163
 11
395.3302190851953
 21
465.8513236682594
 72
     1
 10
395.3302190851953
 20
465.8513236682594
 11
395.3302190851953
 21
455.8519340223218
 72
     1
 10
395.3302190851953
 20
455.8519340223218
 11
365.3303275996396
 21
460.8514565905163
 97
        0
 75
     2
 76
     1
 98
        0
  0
POLYLINE
  5
28D
330
3C
100
AcDbEntity
  8
Layer 1
370
     0
100
AcDb2dPolyline
 66
     1
 10
0.0
 20
0.0
 30
0.0
  0
VERTEX
  5
28E
330
28D
100
AcDbEntity
  8
Layer 1
370
     0
100
AcDbVertex
100
AcDb2dVertex
 10
150.3303588491362
 20
460.8514565905163
 30
0.0
  0
VERTEX
  5
28F
330
28D
100
AcDbEntity
  8
Layer 1
370
     0
100
AcDbVertex
100
AcDb2dVertex
 10
120.3302951088063
 20
455.8519340223218
 30
0.0
  0
VERTEX
  5
290
330
28D
100
AcDbEntity
  8
Layer 1
370
     0
100
AcDbVertex
100
AcDb2dVertex
 10
120.3302951088063
 20
465.8513236682594
 30
0.0
  0
SEQEND
  5
291
330
28D
100
AcDbEntity
  8
Layer 1
370
     0
  0
HATCH
  5
292
330
3C
100
AcDbEntity
  8
Layer 1
 62
     7
100
AcDbHatch
 10
0.0
 20
0.0
 30
0.0
210
0.0
220
0.0
230
1.0
  2
SOLID
 70
     1
 71
     0
 91
        1
 92
        1
 93
        3
 72
     1
 10
150.3303588491362
 20
460.8514565905163
 11
120.3302951088063
 21
455.8519340223218
 72
     1
 10
120.3302951088063
 20
455.8519340223218
 11
120.3302951088063
 21
465.8513236682594
 72
     1
 10
120.3302951088063
 20
465.8513236682594
 11
150.3303588491362
 21
460.8514565905163
 97
        0
 75
     2
 76
     1
 98
        0
  0
POLYLINE
  5
293
330
3C
100
AcDbEntity
  8
Layer 1
 62
     7
370
    25
100
AcDb2dPolyline
 66
     1
 10
0.0
 20
0.0
 30
0.0
  0
VERTEX
  5
294
330
293
100
AcDbEntity
  8
Layer 1
 62
     7
370
    25
100
AcDbVertex
100
AcDb2dVertex
 10
365.3303275996396
 20
533.4582219803508
 30
0.0
  0
VERTEX
  5
295
330
293
100
AcDbEntity
  8
Layer 1
 62
     7
370
    25
100
AcDbVertex
100
AcDb2dVertex
 10
365.3303275996396
 20
450.8513779254816
 30
0.0
  0
SEQEND
  5
296
330
293
100
AcDbEntity
  8
Layer 1
370
    25
  0
POLYLINE
  5
297
330
3C
100
AcDbEntity
  8
Layer 1
 62
     7
370
    25
100
AcDb2dPolyline
 66
     1
 10
0.0
 20
0.0
 30
0.0
  0
VERTEX
  5
298
330
297
100
AcDbEntity
  8
Layer 1
 62
     7
370
    25
100
AcDbVertex
100
AcDb2dVertex
 10
150.3303588491362
 20
533.9074624316273
 30
0.0
  0
VERTEX
  5
299
330
297
100
AcDbEntity
  8
Layer 1
 62
     7
370
    25
100
AcDbVertex
100
AcDb2dVertex
 10
150.3303588491362
 20
450.8513779254816
 30
0.0
  0
SEQEND
  5
29A
330
297
100
AcDbEntity
  8
Layer 1
370
    25
  0
POLYLINE
  5
29B
330
3C
100
AcDbEntity
  8
Layer 1
 62
     7
370
    25
100
AcDb2dPolyline
 66
     1
 10
0.0
 20
0.0
 30
0.0
  0
VERTEX
  5
29C
330
29B
100
AcDbEntity
  8
Layer 1
 62
     7
370
    25
100
AcDbVertex
100
AcDb2dVertex
 10
365.3303275996396
 20
460.8514565905163
 30
0.0
  0
VERTEX
  5
29D
330
29B
100
AcDbEntity
  8
Layer 1
 62
     7
370
    25
100
AcDbVertex
100
AcDb2dVertex
 10
425.3301105707508
 20
460.8514565905163
 30
0.0
  0
SEQEND
  5
29E
330
29B
100
AcDbEntity
  8
Layer 1
370
    25
  0
POLYLINE
  5
29F
330
3C
100
AcDbEntity
  8
Layer 1
 62
     7
370
    25
100
AcDb2dPolyline
 66
     1
 10
0.0
 20
0.0
 30
0.0
  0
VERTEX
  5
2A0
330
29F
100
AcDbEntity
  8
Layer 1
 62
     7
370
    25
100
AcDbVertex
100
AcDb2dVertex
 10
365.3303275996396
 20
460.8514565905163
 30
0.0
  0
VERTEX
  5
2A1
330
29F
100
AcDbEntity
  8
Layer 1
 62
     7
370
    25
100
AcDbVertex
100
AcDb2dVertex
 10
150.3303588491362
 20
460.8514565905163
 30
0.0
  0
SEQEND
  5
2A2
330
29F
100
AcDbEntity
  8
Layer 1
370
    25
  0
POLYLINE
  5
2A3
330
3C
100
AcDbEntity
  8
Layer 1
 62
     7
370
    25
100
AcDb2dPolyline
 66
     1
 10
0.0
 20
0.0
 30
0.0
  0
VERTEX
  5
2A4
330
2A3
100
AcDbEntity
  8
Layer 1
 62
     7
370
    25
100
AcDbVertex
100
AcDb2dVertex
 10
150.3303588491362
 20
460.8514565905163
 30
0.0
  0
VERTEX
  5
2A5
330
2A3
100
AcDbEntity
  8
Layer 1
 62
     7
370
    25
100
AcDbVertex
100
AcDb2dVertex
 10
90.33040362325073
 20
460.8514565905163
 30
0.0
  0
SEQEND
  5
2A6
330
2A3
100
AcDbEntity
  8
Layer 1
370
    25
  0
POLYLINE
  5
2A7
330
3C
100
AcDbEntity
  8
Layer 1
 62
     7
370
    25
100
AcDb2dPolyline
 66
     1
 10
0.0
 20
0.0
 30
0.0
  0
VERTEX
  5
2A8
330
2A7
100
AcDbEntity
  8
Layer 1
 62
     7
370
    25
100
AcDbVertex
100
AcDb2dVertex
 10
193.7423515683179
 20
508.3665580326306
 30
0.0
  0
VERTEX
  5
2A9
330
2A7
100
AcDbEntity
  8
Layer 1
 62
     7
370
    25
100
AcDbVertex
100
AcDb2dVertex
 10
199.0340182336616
 20
515.4217690768737
 30
0.0
  0
SEQEND
  5
2AA
330
2A7
100
AcDbEntity
  8
Layer 1
370
    25
  0
POLYLINE
  5
2AB
330
3C
100
AcDbEntity
  8
Layer 1
 62
     7
370
    25
100
AcDb2dPolyline
 66
     1
 10
0.0
 20
0.0
 30
0.0
  0
VERTEX
  5
2AC
330
2AB
100
AcDbEntity
  8
Layer 1
 62
     7
370
    25
100
AcDbVertex
100
AcDb2dVertex
 10
199.0340182336616
 20
515.4217690768737
 30
0.0
  0
VERTEX
  5
2AD
330
2AB
100
AcDbEntity
  8
Layer 1
 62
     7
370
    25
100
AcDbVertex
100
AcDb2dVertex
 10
209.6175238191234
 20
515.4217690768737
 30
0.0
  0
SEQEND
  5
2AE
330
2AB
100
AcDbEntity
  8
Layer 1
370
    25
  0
POLYLINE
  5
2AF
330
3C
100
AcDbEntity
  8
Layer 1
 62
     7
370
    25
100
AcDb2dPolyline
 66
     1
 10
0.0
 20
0.0
 30
0.0
  0
VERTEX
  5
2B0
330
2AF
100
AcDbEntity
  8
Layer 1
 62
     7
370
    25
100
AcDbVertex
100
AcDb2dVertex
 10
209.6175238191234
 20
515.4217690768737
 30
0.0
  0
VERTEX
  5
2B1
330
2AF
100
AcDbEntity
  8
Layer 1
 62
     7
370
    25
100
AcDbVertex
100
AcDb2dVertex
 10
214.9088459749186
 20
508.3665580326306
 30
0.0
  0
SEQEND
  5
2B2
330
2AF
100
AcDbEntity
  8
Layer 1
370
    25
  0
POLYLINE
  5
2B3
330
3C
100
AcDbEntity
  8
Layer 1
 62
     7
370
    25
100
AcDb2dPolyline
 66
     1
 10
0.0
 20
0.0
 30
0.0
  0
VERTEX
  5
2B4
330
2B3
100
AcDbEntity
  8
Layer 1
 62
     7
370
    25
100
AcDbVertex
100
AcDb2dVertex
 10
214.9088459749186
 20
508.3665580326306
 30
0.0
  0
VERTEX
  5
2B5
330
2B3
100
AcDbEntity
  8
Layer 1
 62
     7
370
    25
100
AcDbVertex
100
AcDb2dVertex
 10
214.9088459749186
 20
501.3110024788389
 30
0.0
  0
SEQEND
  5
2B6
330
2B3
100
AcDbEntity
  8
Layer 1
370
    25
  0
POLYLINE
  5
2B7
330
3C
100
AcDbEntity
  8
Layer 1
 62
     7
370
    25
100
AcDb2dPolyline
 66
     1
 10
0.0
 20
0.0
 30
0.0
  0
VERTEX
  5
2B8
330
2B7
100
AcDbEntity
  8
Layer 1
 62
     7
370
    25
100
AcDbVertex
100
AcDb2dVertex
 10
214.9088459749186
 20
501.3110024788389
 30
0.0
  0
VERTEX
  5
2B9
330
2B7
100
AcDbEntity
  8
Layer 1
 62
     7
370
    25
100
AcDbVertex
100
AcDb2dVertex
 10
209.6175238191234
 20
494.2557914345958
 30
0.0
  0
SEQEND
  5
2BA
330
2B7
100
AcDbEntity
  8
Layer 1
370
    25
  0
POLYLINE
  5
2BB
330
3C
100
AcDbEntity
  8
Layer 1
 62
     7
370
    25
100
AcDb2dPolyline
 66
     1
 10
0.0
 20
0.0
 30
0.0
  0
VERTEX
  5
2BC
330
2BB
100
AcDbEntity
  8
Layer 1
 62
     7
370
    25
100
AcDbVertex
100
AcDb2dVertex
 10
209.6175238191234
 20
494.2557914345958
 30
0.0
  0
VERTEX
  5
2BD
330
2BB
100
AcDbEntity
  8
Layer 1
 62
     7
370
    25
100
AcDbVertex
100
AcDb2dVertex
 10
199.0340182336616
 20
494.2557914345958
 30
0.0
  0
SEQEND
  5
2BE
330
2BB
100
AcDbEntity
  8
Layer 1
370
    25
  0
POLYLINE
  5
2BF
330
3C
100
AcDbEntity
  8
Layer 1
 62
     7
370
    25
100
AcDb2dPolyline
 66
     1
 10
0.0
 20
0.0
 30
0.0
  0
VERTEX
  5
2C0
330
2BF
100
AcDbEntity
  8
Layer 1
 62
     7
370
    25
100
AcDbVertex
100
AcDb2dVertex
 10
199.0340182336616
 20
494.2557914345958
 30
0.0
  0
VERTEX
  5
2C1
330
2BF
100
AcDbEntity
  8
Layer 1
 62
     7
370
    25
100
AcDbVertex
100
AcDb2dVertex
 10
193.7423515683179
 20
487.1995468617071
 30
0.0
  0
SEQEND
  5
2C2
330
2BF
100
AcDbEntity
  8
Layer 1
370
    25
  0
POLYLINE
  5
2C3
330
3C
100
AcDbEntity
  8
Layer 1
 62
     7
370
    25
100
AcDb2dPolyline
 66
     1
 10
0.0
 20
0.0
 30
0.0
  0
VERTEX
  5
2C4
330
2C3
100
AcDbEntity
  8
Layer 1
 62
     7
370
    25
100
AcDbVertex
100
AcDb2dVertex
 10
193.7423515683179
 20
487.1995468617071
 30
0.0
  0
VERTEX
  5
2C5
330
2C3
100
AcDbEntity
  8
Layer 1
 62
     7
370
    25
100
AcDbVertex
100
AcDb2dVertex
 10
193.7423515683179
 20
473.0887802636723
 30
0.0
  0
SEQEND
  5
2C6
330
2C3
100
AcDbEntity
  8
Layer 1
370
    25
  0
POLYLINE
  5
2C7
330
3C
100
AcDbEntity
  8
Layer 1
 62
     7
370
    25
100
AcDb2dPolyline
 66
     1
 10
0.0
 20
0.0
 30
0.0
  0
VERTEX
  5
2C8
330
2C7
100
AcDbEntity
  8
Layer 1
 62
     7
370
    25
100
AcDbVertex
100
AcDb2dVertex
 10
193.7423515683179
 20
473.0887802636723
 30
0.0
  0
VERTEX
  5
2C9
330
2C7
100
AcDbEntity
  8
Layer 1
 62
     7
370
    25
100
AcDbVertex
100
AcDb2dVertex
 10
214.9088459749186
 20
473.0887802636723
 30
0.0
  0
SEQEND
  5
2CA
330
2C7
100
AcDbEntity
  8
Layer 1
370
    25
  0
POLYLINE
  5
2CB
330
3C
100
AcDbEntity
  8
Layer 1
 62
     7
370
    25
100
AcDb2dPolyline
 66
     1
 10
0.0
 20
0.0
 30
0.0
  0
VERTEX
  5
2CC
330
2CB
100
AcDbEntity
  8
Layer 1
 62
     7
370
    25
100
AcDbVertex
100
AcDb2dVertex
 10
225.4921793056061
 20
473.0887802636723
 30
0.0
  0
VERTEX
  5
2CD
330
2CB
100
AcDbEntity
  8
Layer 1
 62
     7
370
    25
100
AcDbVertex
100
AcDb2dVertex
 10
236.0756848910679
 20
473.0887802636723
 30
0.0
  0
SEQEND
  5
2CE
330
2CB
100
AcDbEntity
  8
Layer 1
370
    25
  0
POLYLINE
  5
2CF
330
3C
100
AcDbEntity
  8
Layer 1
 62
     7
370
    25
100
AcDb2dPolyline
 66
     1
 10
0.0
 20
0.0
 30
0.0
  0
VERTEX
  5
2D0
330
2CF
100
AcDbEntity
  8
Layer 1
 62
     7
370
    25
100
AcDbVertex
100
AcDb2dVertex
 10
230.7840182257241
 20
473.0887802636723
 30
0.0
  0
VERTEX
  5
2D1
330
2CF
100
AcDbEntity
  8
Layer 1
 62
     7
370
    25
100
AcDbVertex
100
AcDb2dVertex
 10
230.7840182257241
 20
515.4217690768737
 30
0.0
  0
SEQEND
  5
2D2
330
2CF
100
AcDbEntity
  8
Layer 1
370
    25
  0
POLYLINE
  5
2D3
330
3C
100
AcDbEntity
  8
Layer 1
 62
     7
370
    25
100
AcDb2dPolyline
 66
     1
 10
0.0
 20
0.0
 30
0.0
  0
VERTEX
  5
2D4
330
2D3
100
AcDbEntity
  8
Layer 1
 62
     7
370
    25
100
AcDbVertex
100
AcDb2dVertex
 10
230.7840182257241
 20
515.4217690768737
 30
0.0
  0
VERTEX
  5
2D5
330
2D3
100
AcDbEntity
  8
Layer 1
 62
     7
370
    25
100
AcDbVertex
100
AcDb2dVertex
 10
225.4921793056061
 20
508.3665580326306
 30
0.0
  0
SEQEND
  5
2D6
330
2D3
100
AcDbEntity
  8
Layer 1
370
    25
  0
POLYLINE
  5
2D7
330
3C
100
AcDbEntity
  8
Layer 1
 62
     7
370
    25
100
AcDb2dPolyline
 66
     1
 10
0.0
 20
0.0
 30
0.0
  0
VERTEX
  5
2D8
330
2D7
100
AcDbEntity
  8
Layer 1
 62
     7
370
    25
100
AcDbVertex
100
AcDb2dVertex
 10
246.6586737122069
 20
480.1443358174639
 30
0.0
  0
VERTEX
  5
2D9
330
2D7
100
AcDbEntity
  8
Layer 1
 62
     7
370
    25
100
AcDbVertex
100
AcDb2dVertex
 10
251.9503403775506
 20
473.0887802636723
 30
0.0
  0
SEQEND
  5
2DA
330
2D7
100
AcDbEntity
  8
Layer 1
370
    25
  0
POLYLINE
  5
2DB
330
3C
100
AcDbEntity
  8
Layer 1
 62
     7
370
    25
100
AcDb2dPolyline
 66
     1
 10
0.0
 20
0.0
 30
0.0
  0
VERTEX
  5
2DC
330
2DB
100
AcDbEntity
  8
Layer 1
 62
     7
370
    25
100
AcDbVertex
100
AcDb2dVertex
 10
251.9503403775506
 20
473.0887802636723
 30
0.0
  0
VERTEX
  5
2DD
330
2DB
100
AcDbEntity
  8
Layer 1
 62
     7
370
    25
100
AcDbVertex
100
AcDb2dVertex
 10
262.5338459630124
 20
473.0887802636723
 30
0.0
  0
SEQEND
  5
2DE
330
2DB
100
AcDbEntity
  8
Layer 1
370
    25
  0
POLYLINE
  5
2DF
330
3C
100
AcDbEntity
  8
Layer 1
 62
     7
370
    25
100
AcDb2dPolyline
 66
     1
 10
0.0
 20
0.0
 30
0.0
  0
VERTEX
  5
2E0
330
2DF
100
AcDbEntity
  8
Layer 1
 62
     7
370
    25
100
AcDbVertex
100
AcDb2dVertex
 10
262.5338459630124
 20
473.0887802636723
 30
0.0
  0
VERTEX
  5
2E1
330
2DF
100
AcDbEntity
  8
Layer 1
 62
     7
370
    25
100
AcDbVertex
100
AcDb2dVertex
 10
267.8255126283561
 20
480.1443358174639
 30
0.0
  0
SEQEND
  5
2E2
330
2DF
100
AcDbEntity
  8
Layer 1
370
    25
  0
POLYLINE
  5
2E3
330
3C
100
AcDbEntity
  8
Layer 1
 62
     7
370
    25
100
AcDb2dPolyline
 66
     1
 10
0.0
 20
0.0
 30
0.0
  0
VERTEX
  5
2E4
330
2E3
100
AcDbEntity
  8
Layer 1
 62
     7
370
    25
100
AcDbVertex
100
AcDb2dVertex
 10
267.8255126283561
 20
480.1443358174639
 30
0.0
  0
VERTEX
  5
2E5
330
2E3
100
AcDbEntity
  8
Layer 1
 62
     7
370
    25
100
AcDbVertex
100
AcDb2dVertex
 10
267.8255126283561
 20
494.2557914345958
 30
0.0
  0
SEQEND
  5
2E6
330
2E3
100
AcDbEntity
  8
Layer 1
370
    25
  0
POLYLINE
  5
2E7
330
3C
100
AcDbEntity
  8
Layer 1
 62
     7
370
    25
100
AcDb2dPolyline
 66
     1
 10
0.0
 20
0.0
 30
0.0
  0
VERTEX
  5
2E8
330
2E7
100
AcDbEntity
  8
Layer 1
 62
     7
370
    25
100
AcDbVertex
100
AcDb2dVertex
 10
267.8255126283561
 20
494.2557914345958
 30
0.0
  0
VERTEX
  5
2E9
330
2E7
100
AcDbEntity
  8
Layer 1
 62
     7
370
    25
100
AcDbVertex
100
AcDb2dVertex
 10
262.5338459630124
 20
501.3110024788389
 30
0.0
  0
SEQEND
  5
2EA
330
2E7
100
AcDbEntity
  8
Layer 1
370
    25
  0
POLYLINE
  5
2EB
330
3C
100
AcDbEntity
  8
Layer 1
 62
     7
370
    25
100
AcDb2dPolyline
 66
     1
 10
0.0
 20
0.0
 30
0.0
  0
VERTEX
  5
2EC
330
2EB
100
AcDbEntity
  8
Layer 1
 62
     7
370
    25
100
AcDbVertex
100
AcDb2dVertex
 10
262.5338459630124
 20
501.3110024788389
 30
0.0
  0
VERTEX
  5
2ED
330
2EB
100
AcDbEntity
  8
Layer 1
 62
     7
370
    25
100
AcDbVertex
100
AcDb2dVertex
 10
246.6586737122069
 20
501.3110024788389
 30
0.0
  0
SEQEND
  5
2EE
330
2EB
100
AcDbEntity
  8
Layer 1
370
    25
  0
POLYLINE
  5
2EF
330
3C
100
AcDbEntity
  8
Layer 1
 62
     7
370
    25
100
AcDb2dPolyline
 66
     1
 10
0.0
 20
0.0
 30
0.0
  0
VERTEX
  5
2F0
330
2EF
100
AcDbEntity
  8
Layer 1
 62
     7
370
    25
100
AcDbVertex
100
AcDb2dVertex
 10
246.6586737122069
 20
501.3110024788389
 30
0.0
  0
VERTEX
  5
2F1
330
2EF
100
AcDbEntity
  8
Layer 1
 62
     7
370
    25
100
AcDbVertex
100
AcDb2dVertex
 10
246.6586737122069
 20
515.4217690768737
 30
0.0
  0
SEQEND
  5
2F2
330
2EF
100
AcDbEntity
  8
Layer 1
370
    25
  0
POLYLINE
  5
2F3
330
3C
100
AcDbEntity
  8
Layer 1
 62
     7
370
    25
100
AcDb2dPolyline
 66
     1
 10
0.0
 20
0.0
 30
0.0
  0
VERTEX
  5
2F4
330
2F3
100
AcDbEntity
  8
Layer 1
 62
     7
370
    25
100
AcDbVertex
100
AcDb2dVertex
 10
246.6586737122069
 20
515.4217690768737
 30
0.0
  0
VERTEX
  5
2F5
330
2F3
100
AcDbEntity
  8
Layer 1
 62
     7
370
    25
100
AcDbVertex
100
AcDb2dVertex
 10
267.8255126283561
 20
515.4217690768737
 30
0.0
  0
SEQEND
  5
2F6
330
2F3
100
AcDbEntity
  8
Layer 1
370
    25
  0
POLYLINE
  5
2F7
330
3C
100
AcDbEntity
  8
Layer 1
370
     0
100
AcDb2dPolyline
 66
     1
 10
0.0
 20
0.0
 30
0.0
  0
VERTEX
  5
2F8
330
2F7
100
AcDbEntity
  8
Layer 1
370
     0
100
AcDbVertex
100
AcDb2dVertex
 10
-105.1704969355129
 20
1029.280326077315
 30
0.0
  0
VERTEX
  5
2F9
330
2F7
100
AcDbEntity
  8
Layer 1
370
     0
100
AcDbVertex
100
AcDb2dVertex
 10
-100.1704576029956
 20
999.2804345917598
 30
0.0
  0
VERTEX
  5
2FA
330
2F7
100
AcDbEntity
  8
Layer 1
370
     0
100
AcDbVertex
100
AcDb2dVertex
 10
-110.1701917584818
 20
999.2804345917598
 30
0.0
  0
SEQEND
  5
2FB
330
2F7
100
AcDbEntity
  8
Layer 1
370
     0
  0
HATCH
  5
2FC
330
3C
100
AcDbEntity
  8
Layer 1
 62
     7
100
AcDbHatch
 10
0.0
 20
0.0
 30
0.0
210
0.0
220
0.0
230
1.0
  2
SOLID
 70
     1
 71
     0
 91
        1
 92
        1
 93
        3
 72
     1
 10
-105.1704969355129
 20
1029.280326077315
 11
-100.1704576029956
 21
999.2804345917598
 72
     1
 10
-100.1704576029956
 20
999.2804345917598
 11
-110.1701917584818
 21
999.2804345917598
 72
     1
 10
-110.1701917584818
 20
999.2804345917598
 11
-105.1704969355129
 21
1029.280326077315
 97
        0
 75
     2
 76
     1
 98
        0
  0
POLYLINE
  5
2FD
330
3C
100
AcDbEntity
  8
Layer 1
370
     0
100
AcDb2dPolyline
 66
     1
 10
0.0
 20
0.0
 30
0.0
  0
VERTEX
  5
2FE
330
2FD
100
AcDbEntity
  8
Layer 1
370
     0
100
AcDbVertex
100
AcDb2dVertex
 10
-105.1704969355129
 20
574.2808809328187
 30
0.0
  0
VERTEX
  5
2FF
330
2FD
100
AcDbEntity
  8
Layer 1
370
     0
100
AcDbVertex
100
AcDb2dVertex
 10
-110.1701917584818
 20
604.2807724183742
 30
0.0
  0
VERTEX
  5
300
330
2FD
100
AcDbEntity
  8
Layer 1
370
     0
100
AcDbVertex
100
AcDb2dVertex
 10
-100.1704576029956
 20
604.2807724183742
 30
0.0
  0
SEQEND
  5
301
330
2FD
100
AcDbEntity
  8
Layer 1
370
     0
  0
HATCH
  5
302
330
3C
100
AcDbEntity
  8
Layer 1
 62
     7
100
AcDbHatch
 10
0.0
 20
0.0
 30
0.0
210
0.0
220
0.0
230
1.0
  2
SOLID
 70
     1
 71
     0
 91
        1
 92
        1
 93
        3
 72
     1
 10
-105.1704969355129
 20
574.2808809328187
 11
-110.1701917584818
 21
604.2807724183742
 72
     1
 10
-110.1701917584818
 20
604.2807724183742
 11
-100.1704576029956
 21
604.2807724183742
 72
     1
 10
-100.1704576029956
 20
604.2807724183742
 11
-105.1704969355129
 21
574.2808809328187
 97
        0
 75
     2
 76
     1
 98
        0
  0
POLYLINE
  5
303
330
3C
100
AcDbEntity
  8
Layer 1
 62
     7
370
    25
100
AcDb2dPolyline
 66
     1
 10
0.0
 20
0.0
 30
0.0
  0
VERTEX
  5
304
330
303
100
AcDbEntity
  8
Layer 1
 62
     7
370
    25
100
AcDbVertex
100
AcDb2dVertex
 10
108.6221381021847
 20
1029.280326077315
 30
0.0
  0
VERTEX
  5
305
330
303
100
AcDbEntity
  8
Layer 1
 62
     7
370
    25
100
AcDbVertex
100
AcDb2dVertex
 10
-115.1704033457734
 20
1029.280326077315
 30
0.0
  0
SEQEND
  5
306
330
303
100
AcDbEntity
  8
Layer 1
370
    25
  0
POLYLINE
  5
307
330
3C
100
AcDbEntity
  8
Layer 1
 62
     7
370
    25
100
AcDb2dPolyline
 66
     1
 10
0.0
 20
0.0
 30
0.0
  0
VERTEX
  5
308
330
307
100
AcDbEntity
  8
Layer 1
 62
     7
370
    25
100
AcDbVertex
100
AcDb2dVertex
 10
108.5447957085409
 20
574.2808809328187
 30
0.0
  0
VERTEX
  5
309
330
307
100
AcDbEntity
  8
Layer 1
 62
     7
370
    25
100
AcDbVertex
100
AcDb2dVertex
 10
-115.1704033457734
 20
574.2808809328187
 30
0.0
  0
SEQEND
  5
30A
330
307
100
AcDbEntity
  8
Layer 1
370
    25
  0
POLYLINE
  5
30B
330
3C
100
AcDbEntity
  8
Layer 1
 62
     7
370
    25
100
AcDb2dPolyline
 66
     1
 10
0.0
 20
0.0
 30
0.0
  0
VERTEX
  5
30C
330
30B
100
AcDbEntity
  8
Layer 1
 62
     7
370
    25
100
AcDbVertex
100
AcDb2dVertex
 10
-105.1704969355129
 20
1029.280326077315
 30
0.0
  0
VERTEX
  5
30D
330
30B
100
AcDbEntity
  8
Layer 1
 62
     7
370
    25
100
AcDbVertex
100
AcDb2dVertex
 10
-105.1704969355129
 20
574.2808809328187
 30
0.0
  0
SEQEND
  5
30E
330
30B
100
AcDbEntity
  8
Layer 1
370
    25
  0
POLYLINE
  5
30F
330
3C
100
AcDbEntity
  8
Layer 1
 62
     7
370
    25
100
AcDb2dPolyline
 66
     1
 10
0.0
 20
0.0
 30
0.0
  0
VERTEX
  5
310
330
30F
100
AcDbEntity
  8
Layer 1
 62
     7
370
    25
100
AcDbVertex
100
AcDb2dVertex
 10
-117.4074760991204
 20
753.5676118450283
 30
0.0
  0
VERTEX
  5
311
330
30F
100
AcDbEntity
  8
Layer 1
 62
     7
370
    25
100
AcDbVertex
100
AcDb2dVertex
 10
-159.7408094218704
 20
753.5676118450283
 30
0.0
  0
SEQEND
  5
312
330
30F
100
AcDbEntity
  8
Layer 1
370
    25
  0
POLYLINE
  5
313
330
3C
100
AcDbEntity
  8
Layer 1
 62
     7
370
    25
100
AcDb2dPolyline
 66
     1
 10
0.0
 20
0.0
 30
0.0
  0
VERTEX
  5
314
330
313
100
AcDbEntity
  8
Layer 1
 62
     7
370
    25
100
AcDbVertex
100
AcDb2dVertex
 10
-159.7408094218704
 20
753.5676118450283
 30
0.0
  0
VERTEX
  5
315
330
313
100
AcDbEntity
  8
Layer 1
 62
     7
370
    25
100
AcDbVertex
100
AcDb2dVertex
 10
-131.5185872067037
 20
737.6924395942227
 30
0.0
  0
SEQEND
  5
316
330
313
100
AcDbEntity
  8
Layer 1
370
    25
  0
POLYLINE
  5
317
330
3C
100
AcDbEntity
  8
Layer 1
 62
     7
370
    25
100
AcDb2dPolyline
 66
     1
 10
0.0
 20
0.0
 30
0.0
  0
VERTEX
  5
318
330
317
100
AcDbEntity
  8
Layer 1
 62
     7
370
    25
100
AcDbVertex
100
AcDb2dVertex
 10
-131.5185872067037
 20
737.6924395942227
 30
0.0
  0
VERTEX
  5
319
330
317
100
AcDbEntity
  8
Layer 1
 62
     7
370
    25
100
AcDbVertex
100
AcDb2dVertex
 10
-131.5185872067037
 20
758.8592785103721
 30
0.0
  0
SEQEND
  5
31A
330
317
100
AcDbEntity
  8
Layer 1
370
    25
  0
POLYLINE
  5
31B
330
3C
100
AcDbEntity
  8
Layer 1
 62
     7
370
    25
100
AcDb2dPolyline
 66
     1
 10
0.0
 20
0.0
 30
0.0
  0
VERTEX
  5
31C
330
31B
100
AcDbEntity
  8
Layer 1
 62
     7
370
    25
100
AcDbVertex
100
AcDb2dVertex
 10
-124.4632039076863
 20
769.4427840958338
 30
0.0
  0
VERTEX
  5
31D
330
31B
100
AcDbEntity
  8
Layer 1
 62
     7
370
    25
100
AcDbVertex
100
AcDb2dVertex
 10
-117.4074760991204
 20
774.7344507611775
 30
0.0
  0
SEQEND
  5
31E
330
31B
100
AcDbEntity
  8
Layer 1
370
    25
  0
POLYLINE
  5
31F
330
3C
100
AcDbEntity
  8
Layer 1
 62
     7
370
    25
100
AcDb2dPolyline
 66
     1
 10
0.0
 20
0.0
 30
0.0
  0
VERTEX
  5
320
330
31F
100
AcDbEntity
  8
Layer 1
 62
     7
370
    25
100
AcDbVertex
100
AcDb2dVertex
 10
-117.4074760991204
 20
774.7344507611775
 30
0.0
  0
VERTEX
  5
321
330
31F
100
AcDbEntity
  8
Layer 1
 62
     7
370
    25
100
AcDbVertex
100
AcDb2dVertex
 10
-117.4074760991204
 20
785.3174395823165
 30
0.0
  0
SEQEND
  5
322
330
31F
100
AcDbEntity
  8
Layer 1
370
    25
  0
POLYLINE
  5
323
330
3C
100
AcDbEntity
  8
Layer 1
 62
     7
370
    25
100
AcDb2dPolyline
 66
     1
 10
0.0
 20
0.0
 30
0.0
  0
VERTEX
  5
324
330
323
100
AcDbEntity
  8
Layer 1
 62
     7
370
    25
100
AcDbVertex
100
AcDb2dVertex
 10
-117.4074760991204
 20
785.3174395823165
 30
0.0
  0
VERTEX
  5
325
330
323
100
AcDbEntity
  8
Layer 1
 62
     7
370
    25
100
AcDbVertex
100
AcDb2dVertex
 10
-124.4632039076863
 20
790.6092785024346
 30
0.0
  0
SEQEND
  5
326
330
323
100
AcDbEntity
  8
Layer 1
370
    25
  0
POLYLINE
  5
327
330
3C
100
AcDbEntity
  8
Layer 1
 62
     7
370
    25
100
AcDb2dPolyline
 66
     1
 10
0.0
 20
0.0
 30
0.0
  0
VERTEX
  5
328
330
327
100
AcDbEntity
  8
Layer 1
 62
     7
370
    25
100
AcDbVertex
100
AcDb2dVertex
 10
-124.4632039076863
 20
790.6092785024346
 30
0.0
  0
VERTEX
  5
329
330
327
100
AcDbEntity
  8
Layer 1
 62
     7
370
    25
100
AcDbVertex
100
AcDb2dVertex
 10
-138.5743150152696
 20
790.6092785024346
 30
0.0
  0
SEQEND
  5
32A
330
327
100
AcDbEntity
  8
Layer 1
370
    25
  0
POLYLINE
  5
32B
330
3C
100
AcDbEntity
  8
Layer 1
 62
     7
370
    25
100
AcDb2dPolyline
 66
     1
 10
0.0
 20
0.0
 30
0.0
  0
VERTEX
  5
32C
330
32B
100
AcDbEntity
  8
Layer 1
 62
     7
370
    25
100
AcDbVertex
100
AcDb2dVertex
 10
-138.5743150152696
 20
790.6092785024346
 30
0.0
  0
VERTEX
  5
32D
330
32B
100
AcDbEntity
  8
Layer 1
 62
     7
370
    25
100
AcDbVertex
100
AcDb2dVertex
 10
-145.629698314287
 20
785.3174395823165
 30
0.0
  0
SEQEND
  5
32E
330
32B
100
AcDbEntity
  8
Layer 1
370
    25
  0
POLYLINE
  5
32F
330
3C
100
AcDbEntity
  8
Layer 1
 62
     7
370
    25
100
AcDb2dPolyline
 66
     1
 10
0.0
 20
0.0
 30
0.0
  0
VERTEX
  5
330
330
32F
100
AcDbEntity
  8
Layer 1
 62
     7
370
    25
100
AcDbVertex
100
AcDb2dVertex
 10
-145.629698314287
 20
785.3174395823165
 30
0.0
  0
VERTEX
  5
331
330
32F
100
AcDbEntity
  8
Layer 1
 62
     7
370
    25
100
AcDbVertex
100
AcDb2dVertex
 10
-145.629698314287
 20
769.4427840958338
 30
0.0
  0
SEQEND
  5
332
330
32F
100
AcDbEntity
  8
Layer 1
370
    25
  0
POLYLINE
  5
333
330
3C
100
AcDbEntity
  8
Layer 1
 62
     7
370
    25
100
AcDb2dPolyline
 66
     1
 10
0.0
 20
0.0
 30
0.0
  0
VERTEX
  5
334
330
333
100
AcDbEntity
  8
Layer 1
 62
     7
370
    25
100
AcDbVertex
100
AcDb2dVertex
 10
-145.629698314287
 20
769.4427840958338
 30
0.0
  0
VERTEX
  5
335
330
333
100
AcDbEntity
  8
Layer 1
 62
     7
370
    25
100
AcDbVertex
100
AcDb2dVertex
 10
-159.7408094218704
 20
769.4427840958338
 30
0.0
  0
SEQEND
  5
336
330
333
100
AcDbEntity
  8
Layer 1
370
    25
  0
POLYLINE
  5
337
330
3C
100
AcDbEntity
  8
Layer 1
 62
     7
370
    25
100
AcDb2dPolyline
 66
     1
 10
0.0
 20
0.0
 30
0.0
  0
VERTEX
  5
338
330
337
100
AcDbEntity
  8
Layer 1
 62
     7
370
    25
100
AcDbVertex
100
AcDb2dVertex
 10
-159.7408094218704
 20
769.4427840958338
 30
0.0
  0
VERTEX
  5
339
330
337
100
AcDbEntity
  8
Layer 1
 62
     7
370
    25
100
AcDbVertex
100
AcDb2dVertex
 10
-159.7408094218704
 20
790.6092785024346
 30
0.0
  0
SEQEND
  5
33A
330
337
100
AcDbEntity
  8
Layer 1
370
    25
  0
POLYLINE
  5
33B
330
3C
100
AcDbEntity
  8
Layer 1
 62
     7
370
    25
100
AcDb2dPolyline
 66
     1
 10
0.0
 20
0.0
 30
0.0
  0
VERTEX
  5
33C
330
33B
100
AcDbEntity
  8
Layer 1
 62
     7
370
    25
100
AcDbVertex
100
AcDb2dVertex
 10
-124.4632039076863
 20
801.192611833122
 30
0.0
  0
VERTEX
  5
33D
330
33B
100
AcDbEntity
  8
Layer 1
 62
     7
370
    25
100
AcDbVertex
100
AcDb2dVertex
 10
-117.4074760991204
 20
806.4839339889172
 30
0.0
  0
SEQEND
  5
33E
330
33B
100
AcDbEntity
  8
Layer 1
370
    25
  0
POLYLINE
  5
33F
330
3C
100
AcDbEntity
  8
Layer 1
 62
     7
370
    25
100
AcDb2dPolyline
 66
     1
 10
0.0
 20
0.0
 30
0.0
  0
VERTEX
  5
340
330
33F
100
AcDbEntity
  8
Layer 1
 62
     7
370
    25
100
AcDbVertex
100
AcDb2dVertex
 10
-117.4074760991204
 20
806.4839339889172
 30
0.0
  0
VERTEX
  5
341
330
33F
100
AcDbEntity
  8
Layer 1
 62
     7
370
    25
100
AcDbVertex
100
AcDb2dVertex
 10
-117.4074760991204
 20
817.067439574379
 30
0.0
  0
SEQEND
  5
342
330
33F
100
AcDbEntity
  8
Layer 1
370
    25
  0
POLYLINE
  5
343
330
3C
100
AcDbEntity
  8
Layer 1
 62
     7
370
    25
100
AcDb2dPolyline
 66
     1
 10
0.0
 20
0.0
 30
0.0
  0
VERTEX
  5
344
330
343
100
AcDbEntity
  8
Layer 1
 62
     7
370
    25
100
AcDbVertex
100
AcDb2dVertex
 10
-117.4074760991204
 20
817.067439574379
 30
0.0
  0
VERTEX
  5
345
330
343
100
AcDbEntity
  8
Layer 1
 62
     7
370
    25
100
AcDbVertex
100
AcDb2dVertex
 10
-124.4632039076863
 20
822.3591062397228
 30
0.0
  0
SEQEND
  5
346
330
343
100
AcDbEntity
  8
Layer 1
370
    25
  0
POLYLINE
  5
347
330
3C
100
AcDbEntity
  8
Layer 1
 62
     7
370
    25
100
AcDb2dPolyline
 66
     1
 10
0.0
 20
0.0
 30
0.0
  0
VERTEX
  5
348
330
347
100
AcDbEntity
  8
Layer 1
 62
     7
370
    25
100
AcDbVertex
100
AcDb2dVertex
 10
-124.4632039076863
 20
822.3591062397228
 30
0.0
  0
VERTEX
  5
349
330
347
100
AcDbEntity
  8
Layer 1
 62
     7
370
    25
100
AcDbVertex
100
AcDb2dVertex
 10
-138.5743150152696
 20
822.3591062397228
 30
0.0
  0
SEQEND
  5
34A
330
347
100
AcDbEntity
  8
Layer 1
370
    25
  0
POLYLINE
  5
34B
330
3C
100
AcDbEntity
  8
Layer 1
 62
     7
370
    25
100
AcDb2dPolyline
 66
     1
 10
0.0
 20
0.0
 30
0.0
  0
VERTEX
  5
34C
330
34B
100
AcDbEntity
  8
Layer 1
 62
     7
370
    25
100
AcDbVertex
100
AcDb2dVertex
 10
-138.5743150152696
 20
822.3591062397228
 30
0.0
  0
VERTEX
  5
34D
330
34B
100
AcDbEntity
  8
Layer 1
 62
     7
370
    25
100
AcDbVertex
100
AcDb2dVertex
 10
-145.629698314287
 20
817.067439574379
 30
0.0
  0
SEQEND
  5
34E
330
34B
100
AcDbEntity
  8
Layer 1
370
    25
  0
POLYLINE
  5
34F
330
3C
100
AcDbEntity
  8
Layer 1
 62
     7
370
    25
100
AcDb2dPolyline
 66
     1
 10
0.0
 20
0.0
 30
0.0
  0
VERTEX
  5
350
330
34F
100
AcDbEntity
  8
Layer 1
 62
     7
370
    25
100
AcDbVertex
100
AcDb2dVertex
 10
-145.629698314287
 20
817.067439574379
 30
0.0
  0
VERTEX
  5
351
330
34F
100
AcDbEntity
  8
Layer 1
 62
     7
370
    25
100
AcDbVertex
100
AcDb2dVertex
 10
-145.629698314287
 20
801.192611833122
 30
0.0
  0
SEQEND
  5
352
330
34F
100
AcDbEntity
  8
Layer 1
370
    25
  0
POLYLINE
  5
353
330
3C
100
AcDbEntity
  8
Layer 1
 62
     7
370
    25
100
AcDb2dPolyline
 66
     1
 10
0.0
 20
0.0
 30
0.0
  0
VERTEX
  5
354
330
353
100
AcDbEntity
  8
Layer 1
 62
     7
370
    25
100
AcDbVertex
100
AcDb2dVertex
 10
-145.629698314287
 20
801.192611833122
 30
0.0
  0
VERTEX
  5
355
330
353
100
AcDbEntity
  8
Layer 1
 62
     7
370
    25
100
AcDbVertex
100
AcDb2dVertex
 10
-159.7408094218704
 20
801.192611833122
 30
0.0
  0
SEQEND
  5
356
330
353
100
AcDbEntity
  8
Layer 1
370
    25
  0
POLYLINE
  5
357
330
3C
100
AcDbEntity
  8
Layer 1
 62
     7
370
    25
100
AcDb2dPolyline
 66
     1
 10
0.0
 20
0.0
 30
0.0
  0
VERTEX
  5
358
330
357
100
AcDbEntity
  8
Layer 1
 62
     7
370
    25
100
AcDbVertex
100
AcDb2dVertex
 10
-159.7408094218704
 20
801.192611833122
 30
0.0
  0
VERTEX
  5
359
330
357
100
AcDbEntity
  8
Layer 1
 62
     7
370
    25
100
AcDbVertex
100
AcDb2dVertex
 10
-159.7408094218704
 20
822.3591062397228
 30
0.0
  0
SEQEND
  5
35A
330
357
100
AcDbEntity
  8
Layer 1
370
    25
  0
POLYLINE
  5
35B
330
3C
100
AcDbEntity
  8
Layer 1
370
     0
100
AcDb2dPolyline
 66
     1
 10
0.0
 20
0.0
 30
0.0
  0
VERTEX
  5
35C
330
35B
100
AcDbEntity
  8
Layer 1
370
     0
100
AcDbVertex
100
AcDb2dVertex
 10
750.3297388532162
 20
599.2805608310827
 30
0.0
  0
VERTEX
  5
35D
330
35B
100
AcDbEntity
  8
Layer 1
370
     0
100
AcDbVertex
100
AcDb2dVertex
 10
745.3291827563761
 20
629.2807968261868
 30
0.0
  0
VERTEX
  5
35E
330
35B
100
AcDbEntity
  8
Layer 1
370
     0
100
AcDbVertex
100
AcDb2dVertex
 10
755.3296059309592
 20
629.2807968261868
 30
0.0
  0
SEQEND
  5
35F
330
35B
100
AcDbEntity
  8
Layer 1
370
     0
  0
HATCH
  5
360
330
3C
100
AcDbEntity
  8
Layer 1
 62
     7
100
AcDbHatch
 10
0.0
 20
0.0
 30
0.0
210
0.0
220
0.0
230
1.0
  2
SOLID
 70
     1
 71
     0
 91
        1
 92
        1
 93
        3
 72
     1
 10
750.3297388532162
 20
599.2805608310827
 11
745.3291827563761
 21
629.2807968261868
 72
     1
 10
745.3291827563761
 20
629.2807968261868
 11
755.3296059309592
 21
629.2807968261868
 72
     1
 10
755.3296059309592
 20
629.2807968261868
 11
750.3297388532162
 21
599.2805608310827
 97
        0
 75
     2
 76
     1
 98
        0
  0
POLYLINE
  5
361
330
3C
100
AcDbEntity
  8
Layer 1
370
     0
100
AcDb2dPolyline
 66
     1
 10
0.0
 20
0.0
 30
0.0
  0
VERTEX
  5
362
330
361
100
AcDbEntity
  8
Layer 1
370
     0
100
AcDbVertex
100
AcDb2dVertex
 10
750.3297388532162
 20
1004.280129414729
 30
0.0
  0
VERTEX
  5
363
330
361
100
AcDbEntity
  8
Layer 1
370
     0
100
AcDbVertex
100
AcDb2dVertex
 10
755.3296059309592
 20
974.2800656743988
 30
0.0
  0
VERTEX
  5
364
330
361
100
AcDbEntity
  8
Layer 1
370
     0
100
AcDbVertex
100
AcDb2dVertex
 10
745.3291827563761
 20
974.2800656743988
 30
0.0
  0
SEQEND
  5
365
330
361
100
AcDbEntity
  8
Layer 1
370
     0
  0
HATCH
  5
366
330
3C
100
AcDbEntity
  8
Layer 1
 62
     7
100
AcDbHatch
 10
0.0
 20
0.0
 30
0.0
210
0.0
220
0.0
230
1.0
  2
SOLID
 70
     1
 71
     0
 91
        1
 92
        1
 93
        3
 72
     1
 10
750.3297388532162
 20
1004.280129414729
 11
755.3296059309592
 21
974.2800656743988
 72
     1
 10
755.3296059309592
 20
974.2800656743988
 11
745.3291827563761
 21
974.2800656743988
 72
     1
 10
745.3291827563761
 20
974.2800656743988
 11
750.3297388532162
 21
1004.280129414729
 97
        0
 75
     2
 76
     1
 98
        0
  0
POLYLINE
  5
367
330
3C
100
AcDbEntity
  8
Layer 1
 62
     7
370
    25
100
AcDb2dPolyline
 66
     1
 10
0.0
 20
0.0
 30
0.0
  0
VERTEX
  5
368
330
367
100
AcDbEntity
  8
Layer 1
 62
     7
370
    25
100
AcDbVertex
100
AcDb2dVertex
 10
621.0142902093298
 20
599.2805608310827
 30
0.0
  0
VERTEX
  5
369
330
367
100
AcDbEntity
  8
Layer 1
 62
     7
370
    25
100
AcDbVertex
100
AcDb2dVertex
 10
760.3291284991539
 20
599.2805608310827
 30
0.0
  0
SEQEND
  5
36A
330
367
100
AcDbEntity
  8
Layer 1
370
    25
  0
POLYLINE
  5
36B
330
3C
100
AcDbEntity
  8
Layer 1
 62
     7
370
    25
100
AcDb2dPolyline
 66
     1
 10
0.0
 20
0.0
 30
0.0
  0
VERTEX
  5
36C
330
36B
100
AcDbEntity
  8
Layer 1
 62
     7
370
    25
100
AcDbVertex
100
AcDb2dVertex
 10
619.7265135169434
 20
1004.280129414729
 30
0.0
  0
VERTEX
  5
36D
330
36B
100
AcDbEntity
  8
Layer 1
 62
     7
370
    25
100
AcDbVertex
100
AcDb2dVertex
 10
760.3291284991539
 20
1004.280129414729
 30
0.0
  0
SEQEND
  5
36E
330
36B
100
AcDbEntity
  8
Layer 1
370
    25
  0
POLYLINE
  5
36F
330
3C
100
AcDbEntity
  8
Layer 1
 62
     7
370
    25
100
AcDb2dPolyline
 66
     1
 10
0.0
 20
0.0
 30
0.0
  0
VERTEX
  5
370
330
36F
100
AcDbEntity
  8
Layer 1
 62
     7
370
    25
100
AcDbVertex
100
AcDb2dVertex
 10
750.3297388532162
 20
599.2805608310827
 30
0.0
  0
VERTEX
  5
371
330
36F
100
AcDbEntity
  8
Layer 1
 62
     7
370
    25
100
AcDbVertex
100
AcDb2dVertex
 10
750.3297388532162
 20
1004.280129414729
 30
0.0
  0
SEQEND
  5
372
330
36F
100
AcDbEntity
  8
Layer 1
370
    25
  0
POLYLINE
  5
373
330
3C
100
AcDbEntity
  8
Layer 1
 62
     7
370
    25
100
AcDb2dPolyline
 66
     1
 10
0.0
 20
0.0
 30
0.0
  0
VERTEX
  5
374
330
373
100
AcDbEntity
  8
Layer 1
 62
     7
370
    25
100
AcDbVertex
100
AcDb2dVertex
 10
738.0924151800602
 20
753.5676118450283
 30
0.0
  0
VERTEX
  5
375
330
373
100
AcDbEntity
  8
Layer 1
 62
     7
370
    25
100
AcDbVertex
100
AcDb2dVertex
 10
695.7587373477618
 20
753.5676118450283
 30
0.0
  0
SEQEND
  5
376
330
373
100
AcDbEntity
  8
Layer 1
370
    25
  0
POLYLINE
  5
377
330
3C
100
AcDbEntity
  8
Layer 1
 62
     7
370
    25
100
AcDb2dPolyline
 66
     1
 10
0.0
 20
0.0
 30
0.0
  0
VERTEX
  5
378
330
377
100
AcDbEntity
  8
Layer 1
 62
     7
370
    25
100
AcDbVertex
100
AcDb2dVertex
 10
695.7587373477618
 20
753.5676118450283
 30
0.0
  0
VERTEX
  5
379
330
377
100
AcDbEntity
  8
Layer 1
 62
     7
370
    25
100
AcDbVertex
100
AcDb2dVertex
 10
723.9809595629284
 20
737.6924395942227
 30
0.0
  0
SEQEND
  5
37A
330
377
100
AcDbEntity
  8
Layer 1
370
    25
  0
POLYLINE
  5
37B
330
3C
100
AcDbEntity
  8
Layer 1
 62
     7
370
    25
100
AcDb2dPolyline
 66
     1
 10
0.0
 20
0.0
 30
0.0
  0
VERTEX
  5
37C
330
37B
100
AcDbEntity
  8
Layer 1
 62
     7
370
    25
100
AcDbVertex
100
AcDb2dVertex
 10
723.9809595629284
 20
737.6924395942227
 30
0.0
  0
VERTEX
  5
37D
330
37B
100
AcDbEntity
  8
Layer 1
 62
     7
370
    25
100
AcDbVertex
100
AcDb2dVertex
 10
723.9809595629284
 20
758.8592785103721
 30
0.0
  0
SEQEND
  5
37E
330
37B
100
AcDbEntity
  8
Layer 1
370
    25
  0
POLYLINE
  5
37F
330
3C
100
AcDbEntity
  8
Layer 1
 62
     7
370
    25
100
AcDb2dPolyline
 66
     1
 10
0.0
 20
0.0
 30
0.0
  0
VERTEX
  5
380
330
37F
100
AcDbEntity
  8
Layer 1
 62
     7
370
    25
100
AcDbVertex
100
AcDb2dVertex
 10
738.0924151800602
 20
774.7344507611775
 30
0.0
  0
VERTEX
  5
381
330
37F
100
AcDbEntity
  8
Layer 1
 62
     7
370
    25
100
AcDbVertex
100
AcDb2dVertex
 10
731.0365151167201
 20
769.4427840958338
 30
0.0
  0
SEQEND
  5
382
330
37F
100
AcDbEntity
  8
Layer 1
370
    25
  0
POLYLINE
  5
383
330
3C
100
AcDbEntity
  8
Layer 1
 62
     7
370
    25
100
AcDb2dPolyline
 66
     1
 10
0.0
 20
0.0
 30
0.0
  0
VERTEX
  5
384
330
383
100
AcDbEntity
  8
Layer 1
 62
     7
370
    25
100
AcDbVertex
100
AcDb2dVertex
 10
731.0365151167201
 20
769.4427840958338
 30
0.0
  0
VERTEX
  5
385
330
383
100
AcDbEntity
  8
Layer 1
 62
     7
370
    25
100
AcDbVertex
100
AcDb2dVertex
 10
702.8149819206504
 20
769.4427840958338
 30
0.0
  0
SEQEND
  5
386
330
383
100
AcDbEntity
  8
Layer 1
370
    25
  0
POLYLINE
  5
387
330
3C
100
AcDbEntity
  8
Layer 1
 62
     7
370
    25
100
AcDb2dPolyline
 66
     1
 10
0.0
 20
0.0
 30
0.0
  0
VERTEX
  5
388
330
387
100
AcDbEntity
  8
Layer 1
 62
     7
370
    25
100
AcDbVertex
100
AcDb2dVertex
 10
702.8149819206504
 20
769.4427840958338
 30
0.0
  0
VERTEX
  5
389
330
387
100
AcDbEntity
  8
Layer 1
 62
     7
370
    25
100
AcDbVertex
100
AcDb2dVertex
 10
695.7587373477618
 20
774.7344507611775
 30
0.0
  0
SEQEND
  5
38A
330
387
100
AcDbEntity
  8
Layer 1
370
    25
  0
POLYLINE
  5
38B
330
3C
100
AcDbEntity
  8
Layer 1
 62
     7
370
    25
100
AcDb2dPolyline
 66
     1
 10
0.0
 20
0.0
 30
0.0
  0
VERTEX
  5
38C
330
38B
100
AcDbEntity
  8
Layer 1
 62
     7
370
    25
100
AcDbVertex
100
AcDb2dVertex
 10
695.7587373477618
 20
774.7344507611775
 30
0.0
  0
VERTEX
  5
38D
330
38B
100
AcDbEntity
  8
Layer 1
 62
     7
370
    25
100
AcDbVertex
100
AcDb2dVertex
 10
695.7587373477618
 20
780.0257729169728
 30
0.0
  0
SEQEND
  5
38E
330
38B
100
AcDbEntity
  8
Layer 1
370
    25
  0
POLYLINE
  5
38F
330
3C
100
AcDbEntity
  8
Layer 1
 62
     7
370
    25
100
AcDb2dPolyline
 66
     1
 10
0.0
 20
0.0
 30
0.0
  0
VERTEX
  5
390
330
38F
100
AcDbEntity
  8
Layer 1
 62
     7
370
    25
100
AcDbVertex
100
AcDb2dVertex
 10
695.7587373477618
 20
780.0257729169728
 30
0.0
  0
VERTEX
  5
391
330
38F
100
AcDbEntity
  8
Layer 1
 62
     7
370
    25
100
AcDbVertex
100
AcDb2dVertex
 10
702.8149819206504
 20
785.3174395823165
 30
0.0
  0
SEQEND
  5
392
330
38F
100
AcDbEntity
  8
Layer 1
370
    25
  0
POLYLINE
  5
393
330
3C
100
AcDbEntity
  8
Layer 1
 62
     7
370
    25
100
AcDb2dPolyline
 66
     1
 10
0.0
 20
0.0
 30
0.0
  0
VERTEX
  5
394
330
393
100
AcDbEntity
  8
Layer 1
 62
     7
370
    25
100
AcDbVertex
100
AcDb2dVertex
 10
702.8149819206504
 20
785.3174395823165
 30
0.0
  0
VERTEX
  5
395
330
393
100
AcDbEntity
  8
Layer 1
 62
     7
370
    25
100
AcDbVertex
100
AcDb2dVertex
 10
731.0365151167201
 20
785.3174395823165
 30
0.0
  0
SEQEND
  5
396
330
393
100
AcDbEntity
  8
Layer 1
370
    25
  0
POLYLINE
  5
397
330
3C
100
AcDbEntity
  8
Layer 1
 62
     7
370
    25
100
AcDb2dPolyline
 66
     1
 10
0.0
 20
0.0
 30
0.0
  0
VERTEX
  5
398
330
397
100
AcDbEntity
  8
Layer 1
 62
     7
370
    25
100
AcDbVertex
100
AcDb2dVertex
 10
731.0365151167201
 20
785.3174395823165
 30
0.0
  0
VERTEX
  5
399
330
397
100
AcDbEntity
  8
Layer 1
 62
     7
370
    25
100
AcDbVertex
100
AcDb2dVertex
 10
738.0924151800602
 20
780.0257729169728
 30
0.0
  0
SEQEND
  5
39A
330
397
100
AcDbEntity
  8
Layer 1
370
    25
  0
POLYLINE
  5
39B
330
3C
100
AcDbEntity
  8
Layer 1
 62
     7
370
    25
100
AcDb2dPolyline
 66
     1
 10
0.0
 20
0.0
 30
0.0
  0
VERTEX
  5
39C
330
39B
100
AcDbEntity
  8
Layer 1
 62
     7
370
    25
100
AcDbVertex
100
AcDb2dVertex
 10
738.0924151800602
 20
780.0257729169728
 30
0.0
  0
VERTEX
  5
39D
330
39B
100
AcDbEntity
  8
Layer 1
 62
     7
370
    25
100
AcDbVertex
100
AcDb2dVertex
 10
738.0924151800602
 20
774.7344507611775
 30
0.0
  0
SEQEND
  5
39E
330
39B
100
AcDbEntity
  8
Layer 1
370
    25
  0
POLYLINE
  5
39F
330
3C
100
AcDbEntity
  8
Layer 1
 62
     7
370
    25
100
AcDb2dPolyline
 66
     1
 10
0.0
 20
0.0
 30
0.0
  0
VERTEX
  5
3A0
330
39F
100
AcDbEntity
  8
Layer 1
 62
     7
370
    25
100
AcDbVertex
100
AcDb2dVertex
 10
731.0365151167201
 20
795.9009451677782
 30
0.0
  0
VERTEX
  5
3A1
330
39F
100
AcDbEntity
  8
Layer 1
 62
     7
370
    25
100
AcDbVertex
100
AcDb2dVertex
 10
738.0924151800602
 20
801.192611833122
 30
0.0
  0
SEQEND
  5
3A2
330
39F
100
AcDbEntity
  8
Layer 1
370
    25
  0
POLYLINE
  5
3A3
330
3C
100
AcDbEntity
  8
Layer 1
 62
     7
370
    25
100
AcDb2dPolyline
 66
     1
 10
0.0
 20
0.0
 30
0.0
  0
VERTEX
  5
3A4
330
3A3
100
AcDbEntity
  8
Layer 1
 62
     7
370
    25
100
AcDbVertex
100
AcDb2dVertex
 10
738.0924151800602
 20
801.192611833122
 30
0.0
  0
VERTEX
  5
3A5
330
3A3
100
AcDbEntity
  8
Layer 1
 62
     7
370
    25
100
AcDbVertex
100
AcDb2dVertex
 10
738.0924151800602
 20
811.7757729090353
 30
0.0
  0
SEQEND
  5
3A6
330
3A3
100
AcDbEntity
  8
Layer 1
370
    25
  0
POLYLINE
  5
3A7
330
3C
100
AcDbEntity
  8
Layer 1
 62
     7
370
    25
100
AcDb2dPolyline
 66
     1
 10
0.0
 20
0.0
 30
0.0
  0
VERTEX
  5
3A8
330
3A7
100
AcDbEntity
  8
Layer 1
 62
     7
370
    25
100
AcDbVertex
100
AcDb2dVertex
 10
738.0924151800602
 20
811.7757729090353
 30
0.0
  0
VERTEX
  5
3A9
330
3A7
100
AcDbEntity
  8
Layer 1
 62
     7
370
    25
100
AcDbVertex
100
AcDb2dVertex
 10
731.0365151167201
 20
817.067439574379
 30
0.0
  0
SEQEND
  5
3AA
330
3A7
100
AcDbEntity
  8
Layer 1
370
    25
  0
POLYLINE
  5
3AB
330
3C
100
AcDbEntity
  8
Layer 1
 62
     7
370
    25
100
AcDb2dPolyline
 66
     1
 10
0.0
 20
0.0
 30
0.0
  0
VERTEX
  5
3AC
330
3AB
100
AcDbEntity
  8
Layer 1
 62
     7
370
    25
100
AcDbVertex
100
AcDb2dVertex
 10
731.0365151167201
 20
817.067439574379
 30
0.0
  0
VERTEX
  5
3AD
330
3AB
100
AcDbEntity
  8
Layer 1
 62
     7
370
    25
100
AcDbVertex
100
AcDb2dVertex
 10
716.9257485186853
 20
817.067439574379
 30
0.0
  0
SEQEND
  5
3AE
330
3AB
100
AcDbEntity
  8
Layer 1
370
    25
  0
POLYLINE
  5
3AF
330
3C
100
AcDbEntity
  8
Layer 1
 62
     7
370
    25
100
AcDb2dPolyline
 66
     1
 10
0.0
 20
0.0
 30
0.0
  0
VERTEX
  5
3B0
330
3AF
100
AcDbEntity
  8
Layer 1
 62
     7
370
    25
100
AcDbVertex
100
AcDb2dVertex
 10
716.9257485186853
 20
817.067439574379
 30
0.0
  0
VERTEX
  5
3B1
330
3AF
100
AcDbEntity
  8
Layer 1
 62
     7
370
    25
100
AcDbVertex
100
AcDb2dVertex
 10
709.8701929648936
 20
811.7757729090353
 30
0.0
  0
SEQEND
  5
3B2
330
3AF
100
AcDbEntity
  8
Layer 1
370
    25
  0
POLYLINE
  5
3B3
330
3C
100
AcDbEntity
  8
Layer 1
 62
     7
370
    25
100
AcDb2dPolyline
 66
     1
 10
0.0
 20
0.0
 30
0.0
  0
VERTEX
  5
3B4
330
3B3
100
AcDbEntity
  8
Layer 1
 62
     7
370
    25
100
AcDbVertex
100
AcDb2dVertex
 10
709.8701929648936
 20
811.7757729090353
 30
0.0
  0
VERTEX
  5
3B5
330
3B3
100
AcDbEntity
  8
Layer 1
 62
     7
370
    25
100
AcDbVertex
100
AcDb2dVertex
 10
709.8701929648936
 20
795.9009451677782
 30
0.0
  0
SEQEND
  5
3B6
330
3B3
100
AcDbEntity
  8
Layer 1
370
    25
  0
POLYLINE
  5
3B7
330
3C
100
AcDbEntity
  8
Layer 1
 62
     7
370
    25
100
AcDb2dPolyline
 66
     1
 10
0.0
 20
0.0
 30
0.0
  0
VERTEX
  5
3B8
330
3B7
100
AcDbEntity
  8
Layer 1
 62
     7
370
    25
100
AcDbVertex
100
AcDb2dVertex
 10
709.8701929648936
 20
795.9009451677782
 30
0.0
  0
VERTEX
  5
3B9
330
3B7
100
AcDbEntity
  8
Layer 1
 62
     7
370
    25
100
AcDbVertex
100
AcDb2dVertex
 10
695.7587373477618
 20
795.9009451677782
 30
0.0
  0
SEQEND
  5
3BA
330
3B7
100
AcDbEntity
  8
Layer 1
370
    25
  0
POLYLINE
  5
3BB
330
3C
100
AcDbEntity
  8
Layer 1
 62
     7
370
    25
100
AcDb2dPolyline
 66
     1
 10
0.0
 20
0.0
 30
0.0
  0
VERTEX
  5
3BC
330
3BB
100
AcDbEntity
  8
Layer 1
 62
     7
370
    25
100
AcDbVertex
100
AcDb2dVertex
 10
695.7587373477618
 20
795.9009451677782
 30
0.0
  0
VERTEX
  5
3BD
330
3BB
100
AcDbEntity
  8
Layer 1
 62
     7
370
    25
100
AcDbVertex
100
AcDb2dVertex
 10
695.7587373477618
 20
817.067439574379
 30
0.0
  0
SEQEND
  5
3BE
330
3BB
100
AcDbEntity
  8
Layer 1
370
    25
  0
POLYLINE
  5
3BF
330
3C
100
AcDbEntity
  8
Layer 1
370
     0
100
AcDb2dPolyline
 66
     1
 10
0.0
 20
0.0
 30
0.0
  0
VERTEX
  5
3C0
330
3BF
100
AcDbEntity
  8
Layer 1
370
     0
100
AcDbVertex
100
AcDb2dVertex
 10
580.3301240953689
 20
1227.62463619483
 30
0.0
  0
VERTEX
  5
3C1
330
3BF
100
AcDbEntity
  8
Layer 1
370
     0
100
AcDbVertex
100
AcDb2dVertex
 10
550.3298881002647
 20
1222.624941371861
 30
0.0
  0
VERTEX
  5
3C2
330
3BF
100
AcDbEntity
  8
Layer 1
370
     0
100
AcDbVertex
100
AcDb2dVertex
 10
550.3298881002647
 20
1232.624847782122
 30
0.0
  0
SEQEND
  5
3C3
330
3BF
100
AcDbEntity
  8
Layer 1
370
     0
  0
HATCH
  5
3C4
330
3C
100
AcDbEntity
  8
Layer 1
 62
     7
100
AcDbHatch
 10
0.0
 20
0.0
 30
0.0
210
0.0
220
0.0
230
1.0
  2
SOLID
 70
     1
 71
     0
 91
        1
 92
        1
 93
        3
 72
     1
 10
580.3301240953689
 20
1227.62463619483
 11
550.3298881002647
 21
1222.624941371861
 72
     1
 10
550.3298881002647
 20
1222.624941371861
 11
550.3298881002647
 21
1232.624847782122
 72
     1
 10
550.3298881002647
 20
1232.624847782122
 11
580.3301240953689
 21
1227.62463619483
 97
        0
 75
     2
 76
     1
 98
        0
  0
POLYLINE
  5
3C5
330
3C
100
AcDbEntity
  8
Layer 1
370
     0
100
AcDb2dPolyline
 66
     1
 10
0.0
 20
0.0
 30
0.0
  0
VERTEX
  5
3C6
330
3C5
100
AcDbEntity
  8
Layer 1
370
     0
100
AcDbVertex
100
AcDb2dVertex
 10
150.3303588491362
 20
1227.62463619483
 30
0.0
  0
VERTEX
  5
3C7
330
3C5
100
AcDbEntity
  8
Layer 1
370
     0
100
AcDbVertex
100
AcDb2dVertex
 10
180.330422589466
 20
1232.624847782122
 30
0.0
  0
VERTEX
  5
3C8
330
3C5
100
AcDbEntity
  8
Layer 1
370
     0
100
AcDbVertex
100
AcDb2dVertex
 10
180.330422589466
 20
1222.624941371861
 30
0.0
  0
SEQEND
  5
3C9
330
3C5
100
AcDbEntity
  8
Layer 1
370
     0
  0
HATCH
  5
3CA
330
3C
100
AcDbEntity
  8
Layer 1
 62
     7
100
AcDbHatch
 10
0.0
 20
0.0
 30
0.0
210
0.0
220
0.0
230
1.0
  2
SOLID
 70
     1
 71
     0
 91
        1
 92
        1
 93
        3
 72
     1
 10
150.3303588491362
 20
1227.62463619483
 11
180.330422589466
 21
1232.624847782122
 72
     1
 10
180.330422589466
 20
1232.624847782122
 11
180.330422589466
 21
1222.624941371861
 72
     1
 10
180.330422589466
 20
1222.624941371861
 11
150.3303588491362
 21
1227.62463619483
 97
        0
 75
     2
 76
     1
 98
        0
  0
POLYLINE
  5
3CB
330
3C
100
AcDbEntity
  8
Layer 1
 62
     7
370
    25
100
AcDb2dPolyline
 66
     1
 10
0.0
 20
0.0
 30
0.0
  0
VERTEX
  5
3CC
330
3CB
100
AcDbEntity
  8
Layer 1
 62
     7
370
    25
100
AcDbVertex
100
AcDb2dVertex
 10
580.3301240953689
 20
1068.729942224137
 30
0.0
  0
VERTEX
  5
3CD
330
3CB
100
AcDbEntity
  8
Layer 1
 62
     7
370
    25
100
AcDbVertex
100
AcDb2dVertex
 10
580.3301240953689
 20
1237.625059369413
 30
0.0
  0
SEQEND
  5
3CE
330
3CB
100
AcDbEntity
  8
Layer 1
370
    25
  0
POLYLINE
  5
3CF
330
3C
100
AcDbEntity
  8
Layer 1
 62
     7
370
    25
100
AcDb2dPolyline
 66
     1
 10
0.0
 20
0.0
 30
0.0
  0
VERTEX
  5
3D0
330
3CF
100
AcDbEntity
  8
Layer 1
 62
     7
370
    25
100
AcDbVertex
100
AcDb2dVertex
 10
150.3303588491362
 20
1069.565550134084
 30
0.0
  0
VERTEX
  5
3D1
330
3CF
100
AcDbEntity
  8
Layer 1
 62
     7
370
    25
100
AcDbVertex
100
AcDb2dVertex
 10
150.3303588491362
 20
1237.625059369413
 30
0.0
  0
SEQEND
  5
3D2
330
3CF
100
AcDbEntity
  8
Layer 1
370
    25
  0
POLYLINE
  5
3D3
330
3C
100
AcDbEntity
  8
Layer 1
 62
     7
370
    25
100
AcDb2dPolyline
 66
     1
 10
0.0
 20
0.0
 30
0.0
  0
VERTEX
  5
3D4
330
3D3
100
AcDbEntity
  8
Layer 1
 62
     7
370
    25
100
AcDbVertex
100
AcDb2dVertex
 10
580.3301240953689
 20
1227.62463619483
 30
0.0
  0
VERTEX
  5
3D5
330
3D3
100
AcDbEntity
  8
Layer 1
 62
     7
370
    25
100
AcDbVertex
100
AcDb2dVertex
 10
150.3303588491362
 20
1227.62463619483
 30
0.0
  0
SEQEND
  5
3D6
330
3D3
100
AcDbEntity
  8
Layer 1
370
    25
  0
POLYLINE
  5
3D7
330
3C
100
AcDbEntity
  8
Layer 1
 62
     7
370
    25
100
AcDb2dPolyline
 66
     1
 10
0.0
 20
0.0
 30
0.0
  0
VERTEX
  5
3D8
330
3D7
100
AcDbEntity
  8
Layer 1
 62
     7
370
    25
100
AcDbVertex
100
AcDb2dVertex
 10
317.1169053026653
 20
1239.861959867986
 30
0.0
  0
VERTEX
  5
3D9
330
3D7
100
AcDbEntity
  8
Layer 1
 62
     7
370
    25
100
AcDbVertex
100
AcDb2dVertex
 10
317.1169053026653
 20
1282.195293190736
 30
0.0
  0
SEQEND
  5
3DA
330
3D7
100
AcDbEntity
  8
Layer 1
370
    25
  0
POLYLINE
  5
3DB
330
3C
100
AcDbEntity
  8
Layer 1
 62
     7
370
    25
100
AcDb2dPolyline
 66
     1
 10
0.0
 20
0.0
 30
0.0
  0
VERTEX
  5
3DC
330
3DB
100
AcDbEntity
  8
Layer 1
 62
     7
370
    25
100
AcDbVertex
100
AcDb2dVertex
 10
317.1169053026653
 20
1282.195293190736
 30
0.0
  0
VERTEX
  5
3DD
330
3DB
100
AcDbEntity
  8
Layer 1
 62
     7
370
    25
100
AcDbVertex
100
AcDb2dVertex
 10
301.2422498161825
 20
1253.973070975569
 30
0.0
  0
SEQEND
  5
3DE
330
3DB
100
AcDbEntity
  8
Layer 1
370
    25
  0
POLYLINE
  5
3DF
330
3C
100
AcDbEntity
  8
Layer 1
 62
     7
370
    25
100
AcDb2dPolyline
 66
     1
 10
0.0
 20
0.0
 30
0.0
  0
VERTEX
  5
3E0
330
3DF
100
AcDbEntity
  8
Layer 1
 62
     7
370
    25
100
AcDbVertex
100
AcDb2dVertex
 10
301.2422498161825
 20
1253.973070975569
 30
0.0
  0
VERTEX
  5
3E1
330
3DF
100
AcDbEntity
  8
Layer 1
 62
     7
370
    25
100
AcDbVertex
100
AcDb2dVertex
 10
322.4092609871061
 20
1253.973070975569
 30
0.0
  0
SEQEND
  5
3E2
330
3DF
100
AcDbEntity
  8
Layer 1
370
    25
  0
POLYLINE
  5
3E3
330
3C
100
AcDbEntity
  8
Layer 1
 62
     7
370
    25
100
AcDb2dPolyline
 66
     1
 10
0.0
 20
0.0
 30
0.0
  0
VERTEX
  5
3E4
330
3E3
100
AcDbEntity
  8
Layer 1
 62
     7
370
    25
100
AcDbVertex
100
AcDb2dVertex
 10
332.991560789148
 20
1246.917343167003
 30
0.0
  0
VERTEX
  5
3E5
330
3E3
100
AcDbEntity
  8
Layer 1
 62
     7
370
    25
100
AcDbVertex
100
AcDb2dVertex
 10
338.2835719640402
 20
1239.861959867986
 30
0.0
  0
SEQEND
  5
3E6
330
3E3
100
AcDbEntity
  8
Layer 1
370
    25
  0
POLYLINE
  5
3E7
330
3C
100
AcDbEntity
  8
Layer 1
 62
     7
370
    25
100
AcDb2dPolyline
 66
     1
 10
0.0
 20
0.0
 30
0.0
  0
VERTEX
  5
3E8
330
3E7
100
AcDbEntity
  8
Layer 1
 62
     7
370
    25
100
AcDbVertex
100
AcDb2dVertex
 10
338.2835719640402
 20
1239.861959867986
 30
0.0
  0
VERTEX
  5
3E9
330
3E7
100
AcDbEntity
  8
Layer 1
 62
     7
370
    25
100
AcDbVertex
100
AcDb2dVertex
 10
348.8669052947278
 20
1239.861959867986
 30
0.0
  0
SEQEND
  5
3EA
330
3E7
100
AcDbEntity
  8
Layer 1
370
    25
  0
POLYLINE
  5
3EB
330
3C
100
AcDbEntity
  8
Layer 1
 62
     7
370
    25
100
AcDb2dPolyline
 66
     1
 10
0.0
 20
0.0
 30
0.0
  0
VERTEX
  5
3EC
330
3EB
100
AcDbEntity
  8
Layer 1
 62
     7
370
    25
100
AcDbVertex
100
AcDb2dVertex
 10
348.8669052947278
 20
1239.861959867986
 30
0.0
  0
VERTEX
  5
3ED
330
3EB
100
AcDbEntity
  8
Layer 1
 62
     7
370
    25
100
AcDbVertex
100
AcDb2dVertex
 10
354.1585719600715
 20
1246.917343167003
 30
0.0
  0
SEQEND
  5
3EE
330
3EB
100
AcDbEntity
  8
Layer 1
370
    25
  0
POLYLINE
  5
3EF
330
3C
100
AcDbEntity
  8
Layer 1
 62
     7
370
    25
100
AcDb2dPolyline
 66
     1
 10
0.0
 20
0.0
 30
0.0
  0
VERTEX
  5
3F0
330
3EF
100
AcDbEntity
  8
Layer 1
 62
     7
370
    25
100
AcDbVertex
100
AcDb2dVertex
 10
354.1585719600715
 20
1246.917343167003
 30
0.0
  0
VERTEX
  5
3F1
330
3EF
100
AcDbEntity
  8
Layer 1
 62
     7
370
    25
100
AcDbVertex
100
AcDb2dVertex
 10
354.1585719600715
 20
1253.973070975569
 30
0.0
  0
SEQEND
  5
3F2
330
3EF
100
AcDbEntity
  8
Layer 1
370
    25
  0
POLYLINE
  5
3F3
330
3C
100
AcDbEntity
  8
Layer 1
 62
     7
370
    25
100
AcDb2dPolyline
 66
     1
 10
0.0
 20
0.0
 30
0.0
  0
VERTEX
  5
3F4
330
3F3
100
AcDbEntity
  8
Layer 1
 62
     7
370
    25
100
AcDbVertex
100
AcDb2dVertex
 10
354.1585719600715
 20
1253.973070975569
 30
0.0
  0
VERTEX
  5
3F5
330
3F3
100
AcDbEntity
  8
Layer 1
 62
     7
370
    25
100
AcDbVertex
100
AcDb2dVertex
 10
348.8669052947278
 20
1261.028798784135
 30
0.0
  0
SEQEND
  5
3F6
330
3F3
100
AcDbEntity
  8
Layer 1
370
    25
  0
POLYLINE
  5
3F7
330
3C
100
AcDbEntity
  8
Layer 1
 62
     7
370
    25
100
AcDb2dPolyline
 66
     1
 10
0.0
 20
0.0
 30
0.0
  0
VERTEX
  5
3F8
330
3F7
100
AcDbEntity
  8
Layer 1
 62
     7
370
    25
100
AcDbVertex
100
AcDb2dVertex
 10
348.8669052947278
 20
1261.028798784135
 30
0.0
  0
VERTEX
  5
3F9
330
3F7
100
AcDbEntity
  8
Layer 1
 62
     7
370
    25
100
AcDbVertex
100
AcDb2dVertex
 10
343.575238629384
 20
1261.028798784135
 30
0.0
  0
SEQEND
  5
3FA
330
3F7
100
AcDbEntity
  8
Layer 1
370
    25
  0
POLYLINE
  5
3FB
330
3C
100
AcDbEntity
  8
Layer 1
 62
     7
370
    25
100
AcDb2dPolyline
 66
     1
 10
0.0
 20
0.0
 30
0.0
  0
VERTEX
  5
3FC
330
3FB
100
AcDbEntity
  8
Layer 1
 62
     7
370
    25
100
AcDbVertex
100
AcDb2dVertex
 10
348.8669052947278
 20
1261.028798784135
 30
0.0
  0
VERTEX
  5
3FD
330
3FB
100
AcDbEntity
  8
Layer 1
 62
     7
370
    25
100
AcDbVertex
100
AcDb2dVertex
 10
354.1585719600715
 20
1268.084182083153
 30
0.0
  0
SEQEND
  5
3FE
330
3FB
100
AcDbEntity
  8
Layer 1
370
    25
  0
POLYLINE
  5
3FF
330
3C
100
AcDbEntity
  8
Layer 1
 62
     7
370
    25
100
AcDb2dPolyline
 66
     1
 10
0.0
 20
0.0
 30
0.0
  0
VERTEX
  5
400
330
3FF
100
AcDbEntity
  8
Layer 1
 62
     7
370
    25
100
AcDbVertex
100
AcDb2dVertex
 10
354.1585719600715
 20
1268.084182083153
 30
0.0
  0
VERTEX
  5
401
330
3FF
100
AcDbEntity
  8
Layer 1
 62
     7
370
    25
100
AcDbVertex
100
AcDb2dVertex
 10
354.1585719600715
 20
1275.13956538217
 30
0.0
  0
SEQEND
  5
402
330
3FF
100
AcDbEntity
  8
Layer 1
370
    25
  0
POLYLINE
  5
403
330
3C
100
AcDbEntity
  8
Layer 1
 62
     7
370
    25
100
AcDb2dPolyline
 66
     1
 10
0.0
 20
0.0
 30
0.0
  0
VERTEX
  5
404
330
403
100
AcDbEntity
  8
Layer 1
 62
     7
370
    25
100
AcDbVertex
100
AcDb2dVertex
 10
354.1585719600715
 20
1275.13956538217
 30
0.0
  0
VERTEX
  5
405
330
403
100
AcDbEntity
  8
Layer 1
 62
     7
370
    25
100
AcDbVertex
100
AcDb2dVertex
 10
348.8669052947278
 20
1282.195293190736
 30
0.0
  0
SEQEND
  5
406
330
403
100
AcDbEntity
  8
Layer 1
370
    25
  0
POLYLINE
  5
407
330
3C
100
AcDbEntity
  8
Layer 1
 62
     7
370
    25
100
AcDb2dPolyline
 66
     1
 10
0.0
 20
0.0
 30
0.0
  0
VERTEX
  5
408
330
407
100
AcDbEntity
  8
Layer 1
 62
     7
370
    25
100
AcDbVertex
100
AcDb2dVertex
 10
348.8669052947278
 20
1282.195293190736
 30
0.0
  0
VERTEX
  5
409
330
407
100
AcDbEntity
  8
Layer 1
 62
     7
370
    25
100
AcDbVertex
100
AcDb2dVertex
 10
338.2835719640402
 20
1282.195293190736
 30
0.0
  0
SEQEND
  5
40A
330
407
100
AcDbEntity
  8
Layer 1
370
    25
  0
POLYLINE
  5
40B
330
3C
100
AcDbEntity
  8
Layer 1
 62
     7
370
    25
100
AcDb2dPolyline
 66
     1
 10
0.0
 20
0.0
 30
0.0
  0
VERTEX
  5
40C
330
40B
100
AcDbEntity
  8
Layer 1
 62
     7
370
    25
100
AcDbVertex
100
AcDb2dVertex
 10
338.2835719640402
 20
1282.195293190736
 30
0.0
  0
VERTEX
  5
40D
330
40B
100
AcDbEntity
  8
Layer 1
 62
     7
370
    25
100
AcDbVertex
100
AcDb2dVertex
 10
332.991560789148
 20
1275.13956538217
 30
0.0
  0
SEQEND
  5
40E
330
40B
100
AcDbEntity
  8
Layer 1
370
    25
  0
POLYLINE
  5
40F
330
3C
100
AcDbEntity
  8
Layer 1
 62
     7
370
    25
100
AcDb2dPolyline
 66
     1
 10
0.0
 20
0.0
 30
0.0
  0
VERTEX
  5
410
330
40F
100
AcDbEntity
  8
Layer 1
 62
     7
370
    25
100
AcDbVertex
100
AcDb2dVertex
 10
370.0339164656513
 20
1239.861959867986
 30
0.0
  0
VERTEX
  5
411
330
40F
100
AcDbEntity
  8
Layer 1
 62
     7
370
    25
100
AcDbVertex
100
AcDb2dVertex
 10
364.741905290759
 20
1246.917343167003
 30
0.0
  0
SEQEND
  5
412
330
40F
100
AcDbEntity
  8
Layer 1
370
    25
  0
POLYLINE
  5
413
330
3C
100
AcDbEntity
  8
Layer 1
 62
     7
370
    25
100
AcDb2dPolyline
 66
     1
 10
0.0
 20
0.0
 30
0.0
  0
VERTEX
  5
414
330
413
100
AcDbEntity
  8
Layer 1
 62
     7
370
    25
100
AcDbVertex
100
AcDb2dVertex
 10
364.741905290759
 20
1246.917343167003
 30
0.0
  0
VERTEX
  5
415
330
413
100
AcDbEntity
  8
Layer 1
 62
     7
370
    25
100
AcDbVertex
100
AcDb2dVertex
 10
364.741905290759
 20
1275.13956538217
 30
0.0
  0
SEQEND
  5
416
330
413
100
AcDbEntity
  8
Layer 1
370
    25
  0
POLYLINE
  5
417
330
3C
100
AcDbEntity
  8
Layer 1
 62
     7
370
    25
100
AcDb2dPolyline
 66
     1
 10
0.0
 20
0.0
 30
0.0
  0
VERTEX
  5
418
330
417
100
AcDbEntity
  8
Layer 1
 62
     7
370
    25
100
AcDbVertex
100
AcDb2dVertex
 10
364.741905290759
 20
1275.13956538217
 30
0.0
  0
VERTEX
  5
419
330
417
100
AcDbEntity
  8
Layer 1
 62
     7
370
    25
100
AcDbVertex
100
AcDb2dVertex
 10
370.0339164656513
 20
1282.195293190736
 30
0.0
  0
SEQEND
  5
41A
330
417
100
AcDbEntity
  8
Layer 1
370
    25
  0
POLYLINE
  5
41B
330
3C
100
AcDbEntity
  8
Layer 1
 62
     7
370
    25
100
AcDb2dPolyline
 66
     1
 10
0.0
 20
0.0
 30
0.0
  0
VERTEX
  5
41C
330
41B
100
AcDbEntity
  8
Layer 1
 62
     7
370
    25
100
AcDbVertex
100
AcDb2dVertex
 10
370.0339164656513
 20
1282.195293190736
 30
0.0
  0
VERTEX
  5
41D
330
41B
100
AcDbEntity
  8
Layer 1
 62
     7
370
    25
100
AcDbVertex
100
AcDb2dVertex
 10
375.325583130995
 20
1282.195293190736
 30
0.0
  0
SEQEND
  5
41E
330
41B
100
AcDbEntity
  8
Layer 1
370
    25
  0
POLYLINE
  5
41F
330
3C
100
AcDbEntity
  8
Layer 1
 62
     7
370
    25
100
AcDb2dPolyline
 66
     1
 10
0.0
 20
0.0
 30
0.0
  0
VERTEX
  5
420
330
41F
100
AcDbEntity
  8
Layer 1
 62
     7
370
    25
100
AcDbVertex
100
AcDb2dVertex
 10
375.325583130995
 20
1282.195293190736
 30
0.0
  0
VERTEX
  5
421
330
41F
100
AcDbEntity
  8
Layer 1
 62
     7
370
    25
100
AcDbVertex
100
AcDb2dVertex
 10
380.6172497963387
 20
1275.13956538217
 30
0.0
  0
SEQEND
  5
422
330
41F
100
AcDbEntity
  8
Layer 1
370
    25
  0
POLYLINE
  5
423
330
3C
100
AcDbEntity
  8
Layer 1
 62
     7
370
    25
100
AcDb2dPolyline
 66
     1
 10
0.0
 20
0.0
 30
0.0
  0
VERTEX
  5
424
330
423
100
AcDbEntity
  8
Layer 1
 62
     7
370
    25
100
AcDbVertex
100
AcDb2dVertex
 10
380.6172497963387
 20
1275.13956538217
 30
0.0
  0
VERTEX
  5
425
330
423
100
AcDbEntity
  8
Layer 1
 62
     7
370
    25
100
AcDbVertex
100
AcDb2dVertex
 10
380.6172497963387
 20
1246.917343167003
 30
0.0
  0
SEQEND
  5
426
330
423
100
AcDbEntity
  8
Layer 1
370
    25
  0
POLYLINE
  5
427
330
3C
100
AcDbEntity
  8
Layer 1
 62
     7
370
    25
100
AcDb2dPolyline
 66
     1
 10
0.0
 20
0.0
 30
0.0
  0
VERTEX
  5
428
330
427
100
AcDbEntity
  8
Layer 1
 62
     7
370
    25
100
AcDbVertex
100
AcDb2dVertex
 10
380.6172497963387
 20
1246.917343167003
 30
0.0
  0
VERTEX
  5
429
330
427
100
AcDbEntity
  8
Layer 1
 62
     7
370
    25
100
AcDbVertex
100
AcDb2dVertex
 10
375.325583130995
 20
1239.861959867986
 30
0.0
  0
SEQEND
  5
42A
330
427
100
AcDbEntity
  8
Layer 1
370
    25
  0
POLYLINE
  5
42B
330
3C
100
AcDbEntity
  8
Layer 1
 62
     7
370
    25
100
AcDb2dPolyline
 66
     1
 10
0.0
 20
0.0
 30
0.0
  0
VERTEX
  5
42C
330
42B
100
AcDbEntity
  8
Layer 1
 62
     7
370
    25
100
AcDbVertex
100
AcDb2dVertex
 10
375.325583130995
 20
1239.861959867986
 30
0.0
  0
VERTEX
  5
42D
330
42B
100
AcDbEntity
  8
Layer 1
 62
     7
370
    25
100
AcDbVertex
100
AcDb2dVertex
 10
370.0339164656513
 20
1239.861959867986
 30
0.0
  0
SEQEND
  5
42E
330
42B
100
AcDbEntity
  8
Layer 1
370
    25
  0
POLYLINE
  5
42F
330
3C
100
AcDbEntity
  8
Layer 1
370
     0
100
AcDb2dPolyline
 66
     1
 10
0.0
 20
0.0
 30
0.0
  0
VERTEX
  5
430
330
42F
100
AcDbEntity
  8
Layer 1
370
     0
100
AcDbVertex
100
AcDb2dVertex
 10
175.3302110021744
 20
1150.346493581771
 30
0.0
  0
VERTEX
  5
431
330
42F
100
AcDbEntity
  8
Layer 1
370
     0
100
AcDbVertex
100
AcDb2dVertex
 10
205.3302747425043
 20
1155.346705169063
 30
0.0
  0
VERTEX
  5
432
330
42F
100
AcDbEntity
  8
Layer 1
370
     0
100
AcDbVertex
100
AcDb2dVertex
 10
205.3302747425043
 20
1145.346454249254
 30
0.0
  0
SEQEND
  5
433
330
42F
100
AcDbEntity
  8
Layer 1
370
     0
  0
HATCH
  5
434
330
3C
100
AcDbEntity
  8
Layer 1
 62
     7
100
AcDbHatch
 10
0.0
 20
0.0
 30
0.0
210
0.0
220
0.0
230
1.0
  2
SOLID
 70
     1
 71
     0
 91
        1
 92
        1
 93
        3
 72
     1
 10
175.3302110021744
 20
1150.346493581771
 11
205.3302747425043
 21
1155.346705169063
 72
     1
 10
205.3302747425043
 20
1155.346705169063
 11
205.3302747425043
 21
1145.346454249254
 72
     1
 10
205.3302747425043
 20
1145.346454249254
 11
175.3302110021744
 21
1150.346493581771
 97
        0
 75
     2
 76
     1
 98
        0
  0
POLYLINE
  5
435
330
3C
100
AcDbEntity
  8
Layer 1
370
     0
100
AcDb2dPolyline
 66
     1
 10
0.0
 20
0.0
 30
0.0
  0
VERTEX
  5
436
330
435
100
AcDbEntity
  8
Layer 1
370
     0
100
AcDbVertex
100
AcDb2dVertex
 10
555.3297551780079
 20
1150.346493581771
 30
0.0
  0
VERTEX
  5
437
330
435
100
AcDbEntity
  8
Layer 1
370
     0
100
AcDbVertex
100
AcDb2dVertex
 10
525.3298636924522
 20
1145.346454249254
 30
0.0
  0
VERTEX
  5
438
330
435
100
AcDbEntity
  8
Layer 1
370
     0
100
AcDbVertex
100
AcDb2dVertex
 10
525.3298636924522
 20
1155.346705169063
 30
0.0
  0
SEQEND
  5
439
330
435
100
AcDbEntity
  8
Layer 1
370
     0
  0
HATCH
  5
43A
330
3C
100
AcDbEntity
  8
Layer 1
 62
     7
100
AcDbHatch
 10
0.0
 20
0.0
 30
0.0
210
0.0
220
0.0
230
1.0
  2
SOLID
 70
     1
 71
     0
 91
        1
 92
        1
 93
        3
 72
     1
 10
555.3297551780079
 20
1150.346493581771
 11
525.3298636924522
 21
1145.346454249254
 72
     1
 10
525.3298636924522
 20
1145.346454249254
 11
525.3298636924522
 21
1155.346705169063
 72
     1
 10
525.3298636924522
 20
1155.346705169063
 11
555.3297551780079
 21
1150.346493581771
 97
        0
 75
     2
 76
     1
 98
        0
  0
POLYLINE
  5
43B
330
3C
100
AcDbEntity
  8
Layer 1
 62
     7
370
    25
100
AcDb2dPolyline
 66
     1
 10
0.0
 20
0.0
 30
0.0
  0
VERTEX
  5
43C
330
43B
100
AcDbEntity
  8
Layer 1
 62
     7
370
    25
100
AcDbVertex
100
AcDb2dVertex
 10
175.3302110021744
 20
1069.156789554759
 30
0.0
  0
VERTEX
  5
43D
330
43B
100
AcDbEntity
  8
Layer 1
 62
     7
370
    25
100
AcDbVertex
100
AcDb2dVertex
 10
175.3302110021744
 20
1160.346399992032
 30
0.0
  0
SEQEND
  5
43E
330
43B
100
AcDbEntity
  8
Layer 1
370
    25
  0
POLYLINE
  5
43F
330
3C
100
AcDbEntity
  8
Layer 1
 62
     7
370
    25
100
AcDb2dPolyline
 66
     1
 10
0.0
 20
0.0
 30
0.0
  0
VERTEX
  5
440
330
43F
100
AcDbEntity
  8
Layer 1
 62
     7
370
    25
100
AcDbVertex
100
AcDb2dVertex
 10
555.3297551780079
 20
1068.729942224137
 30
0.0
  0
VERTEX
  5
441
330
43F
100
AcDbEntity
  8
Layer 1
 62
     7
370
    25
100
AcDbVertex
100
AcDb2dVertex
 10
555.3297551780079
 20
1160.346399992032
 30
0.0
  0
SEQEND
  5
442
330
43F
100
AcDbEntity
  8
Layer 1
370
    25
  0
POLYLINE
  5
443
330
3C
100
AcDbEntity
  8
Layer 1
 62
     7
370
    25
100
AcDb2dPolyline
 66
     1
 10
0.0
 20
0.0
 30
0.0
  0
VERTEX
  5
444
330
443
100
AcDbEntity
  8
Layer 1
 62
     7
370
    25
100
AcDbVertex
100
AcDb2dVertex
 10
175.3302110021744
 20
1150.346493581771
 30
0.0
  0
VERTEX
  5
445
330
443
100
AcDbEntity
  8
Layer 1
 62
     7
370
    25
100
AcDbVertex
100
AcDb2dVertex
 10
555.3297551780079
 20
1150.346493581771
 30
0.0
  0
SEQEND
  5
446
330
443
100
AcDbEntity
  8
Layer 1
370
    25
  0
POLYLINE
  5
447
330
3C
100
AcDbEntity
  8
Layer 1
 62
     7
370
    25
100
AcDb2dPolyline
 66
     1
 10
0.0
 20
0.0
 30
0.0
  0
VERTEX
  5
448
330
447
100
AcDbEntity
  8
Layer 1
 62
     7
370
    25
100
AcDbVertex
100
AcDb2dVertex
 10
301.2422498161825
 20
1169.639200553944
 30
0.0
  0
VERTEX
  5
449
330
447
100
AcDbEntity
  8
Layer 1
 62
     7
370
    25
100
AcDbVertex
100
AcDb2dVertex
 10
306.5339164815263
 20
1162.583817254927
 30
0.0
  0
SEQEND
  5
44A
330
447
100
AcDbEntity
  8
Layer 1
370
    25
  0
POLYLINE
  5
44B
330
3C
100
AcDbEntity
  8
Layer 1
 62
     7
370
    25
100
AcDb2dPolyline
 66
     1
 10
0.0
 20
0.0
 30
0.0
  0
VERTEX
  5
44C
330
44B
100
AcDbEntity
  8
Layer 1
 62
     7
370
    25
100
AcDbVertex
100
AcDb2dVertex
 10
306.5339164815263
 20
1162.583817254927
 30
0.0
  0
VERTEX
  5
44D
330
44B
100
AcDbEntity
  8
Layer 1
 62
     7
370
    25
100
AcDbVertex
100
AcDb2dVertex
 10
317.1169053026653
 20
1162.583817254927
 30
0.0
  0
SEQEND
  5
44E
330
44B
100
AcDbEntity
  8
Layer 1
370
    25
  0
POLYLINE
  5
44F
330
3C
100
AcDbEntity
  8
Layer 1
 62
     7
370
    25
100
AcDb2dPolyline
 66
     1
 10
0.0
 20
0.0
 30
0.0
  0
VERTEX
  5
450
330
44F
100
AcDbEntity
  8
Layer 1
 62
     7
370
    25
100
AcDbVertex
100
AcDb2dVertex
 10
317.1169053026653
 20
1162.583817254927
 30
0.0
  0
VERTEX
  5
451
330
44F
100
AcDbEntity
  8
Layer 1
 62
     7
370
    25
100
AcDbVertex
100
AcDb2dVertex
 10
322.4092609871061
 20
1169.639200553944
 30
0.0
  0
SEQEND
  5
452
330
44F
100
AcDbEntity
  8
Layer 1
370
    25
  0
POLYLINE
  5
453
330
3C
100
AcDbEntity
  8
Layer 1
 62
     7
370
    25
100
AcDb2dPolyline
 66
     1
 10
0.0
 20
0.0
 30
0.0
  0
VERTEX
  5
454
330
453
100
AcDbEntity
  8
Layer 1
 62
     7
370
    25
100
AcDbVertex
100
AcDb2dVertex
 10
322.4092609871061
 20
1169.639200553944
 30
0.0
  0
VERTEX
  5
455
330
453
100
AcDbEntity
  8
Layer 1
 62
     7
370
    25
100
AcDbVertex
100
AcDb2dVertex
 10
322.4092609871061
 20
1176.69492836251
 30
0.0
  0
SEQEND
  5
456
330
453
100
AcDbEntity
  8
Layer 1
370
    25
  0
POLYLINE
  5
457
330
3C
100
AcDbEntity
  8
Layer 1
 62
     7
370
    25
100
AcDb2dPolyline
 66
     1
 10
0.0
 20
0.0
 30
0.0
  0
VERTEX
  5
458
330
457
100
AcDbEntity
  8
Layer 1
 62
     7
370
    25
100
AcDbVertex
100
AcDb2dVertex
 10
322.4092609871061
 20
1176.69492836251
 30
0.0
  0
VERTEX
  5
459
330
457
100
AcDbEntity
  8
Layer 1
 62
     7
370
    25
100
AcDbVertex
100
AcDb2dVertex
 10
317.1169053026653
 20
1183.750311661528
 30
0.0
  0
SEQEND
  5
45A
330
457
100
AcDbEntity
  8
Layer 1
370
    25
  0
POLYLINE
  5
45B
330
3C
100
AcDbEntity
  8
Layer 1
 62
     7
370
    25
100
AcDb2dPolyline
 66
     1
 10
0.0
 20
0.0
 30
0.0
  0
VERTEX
  5
45C
330
45B
100
AcDbEntity
  8
Layer 1
 62
     7
370
    25
100
AcDbVertex
100
AcDb2dVertex
 10
317.1169053026653
 20
1183.750311661528
 30
0.0
  0
VERTEX
  5
45D
330
45B
100
AcDbEntity
  8
Layer 1
 62
     7
370
    25
100
AcDbVertex
100
AcDb2dVertex
 10
311.82558314687
 20
1183.750311661528
 30
0.0
  0
SEQEND
  5
45E
330
45B
100
AcDbEntity
  8
Layer 1
370
    25
  0
POLYLINE
  5
45F
330
3C
100
AcDbEntity
  8
Layer 1
 62
     7
370
    25
100
AcDb2dPolyline
 66
     1
 10
0.0
 20
0.0
 30
0.0
  0
VERTEX
  5
460
330
45F
100
AcDbEntity
  8
Layer 1
 62
     7
370
    25
100
AcDbVertex
100
AcDb2dVertex
 10
317.1169053026653
 20
1183.750311661528
 30
0.0
  0
VERTEX
  5
461
330
45F
100
AcDbEntity
  8
Layer 1
 62
     7
370
    25
100
AcDbVertex
100
AcDb2dVertex
 10
322.4092609871061
 20
1190.806039470094
 30
0.0
  0
SEQEND
  5
462
330
45F
100
AcDbEntity
  8
Layer 1
370
    25
  0
POLYLINE
  5
463
330
3C
100
AcDbEntity
  8
Layer 1
 62
     7
370
    25
100
AcDb2dPolyline
 66
     1
 10
0.0
 20
0.0
 30
0.0
  0
VERTEX
  5
464
330
463
100
AcDbEntity
  8
Layer 1
 62
     7
370
    25
100
AcDbVertex
100
AcDb2dVertex
 10
322.4092609871061
 20
1190.806039470094
 30
0.0
  0
VERTEX
  5
465
330
463
100
AcDbEntity
  8
Layer 1
 62
     7
370
    25
100
AcDbVertex
100
AcDb2dVertex
 10
322.4092609871061
 20
1197.861422769111
 30
0.0
  0
SEQEND
  5
466
330
463
100
AcDbEntity
  8
Layer 1
370
    25
  0
POLYLINE
  5
467
330
3C
100
AcDbEntity
  8
Layer 1
 62
     7
370
    25
100
AcDb2dPolyline
 66
     1
 10
0.0
 20
0.0
 30
0.0
  0
VERTEX
  5
468
330
467
100
AcDbEntity
  8
Layer 1
 62
     7
370
    25
100
AcDbVertex
100
AcDb2dVertex
 10
322.4092609871061
 20
1197.861422769111
 30
0.0
  0
VERTEX
  5
469
330
467
100
AcDbEntity
  8
Layer 1
 62
     7
370
    25
100
AcDbVertex
100
AcDb2dVertex
 10
317.1169053026653
 20
1204.917150577677
 30
0.0
  0
SEQEND
  5
46A
330
467
100
AcDbEntity
  8
Layer 1
370
    25
  0
POLYLINE
  5
46B
330
3C
100
AcDbEntity
  8
Layer 1
 62
     7
370
    25
100
AcDb2dPolyline
 66
     1
 10
0.0
 20
0.0
 30
0.0
  0
VERTEX
  5
46C
330
46B
100
AcDbEntity
  8
Layer 1
 62
     7
370
    25
100
AcDbVertex
100
AcDb2dVertex
 10
317.1169053026653
 20
1204.917150577677
 30
0.0
  0
VERTEX
  5
46D
330
46B
100
AcDbEntity
  8
Layer 1
 62
     7
370
    25
100
AcDbVertex
100
AcDb2dVertex
 10
306.5339164815263
 20
1204.917150577677
 30
0.0
  0
SEQEND
  5
46E
330
46B
100
AcDbEntity
  8
Layer 1
370
    25
  0
POLYLINE
  5
46F
330
3C
100
AcDbEntity
  8
Layer 1
 62
     7
370
    25
100
AcDb2dPolyline
 66
     1
 10
0.0
 20
0.0
 30
0.0
  0
VERTEX
  5
470
330
46F
100
AcDbEntity
  8
Layer 1
 62
     7
370
    25
100
AcDbVertex
100
AcDb2dVertex
 10
306.5339164815263
 20
1204.917150577677
 30
0.0
  0
VERTEX
  5
471
330
46F
100
AcDbEntity
  8
Layer 1
 62
     7
370
    25
100
AcDbVertex
100
AcDb2dVertex
 10
301.2422498161825
 20
1197.861422769111
 30
0.0
  0
SEQEND
  5
472
330
46F
100
AcDbEntity
  8
Layer 1
370
    25
  0
POLYLINE
  5
473
330
3C
100
AcDbEntity
  8
Layer 1
 62
     7
370
    25
100
AcDb2dPolyline
 66
     1
 10
0.0
 20
0.0
 30
0.0
  0
VERTEX
  5
474
330
473
100
AcDbEntity
  8
Layer 1
 62
     7
370
    25
100
AcDbVertex
100
AcDb2dVertex
 10
338.2835719640402
 20
1162.583817254927
 30
0.0
  0
VERTEX
  5
475
330
473
100
AcDbEntity
  8
Layer 1
 62
     7
370
    25
100
AcDbVertex
100
AcDb2dVertex
 10
348.8669052947278
 20
1162.583817254927
 30
0.0
  0
SEQEND
  5
476
330
473
100
AcDbEntity
  8
Layer 1
370
    25
  0
POLYLINE
  5
477
330
3C
100
AcDbEntity
  8
Layer 1
 62
     7
370
    25
100
AcDb2dPolyline
 66
     1
 10
0.0
 20
0.0
 30
0.0
  0
VERTEX
  5
478
330
477
100
AcDbEntity
  8
Layer 1
 62
     7
370
    25
100
AcDbVertex
100
AcDb2dVertex
 10
348.8669052947278
 20
1162.583817254927
 30
0.0
  0
VERTEX
  5
479
330
477
100
AcDbEntity
  8
Layer 1
 62
     7
370
    25
100
AcDbVertex
100
AcDb2dVertex
 10
354.1585719600715
 20
1169.639200553944
 30
0.0
  0
SEQEND
  5
47A
330
477
100
AcDbEntity
  8
Layer 1
370
    25
  0
POLYLINE
  5
47B
330
3C
100
AcDbEntity
  8
Layer 1
 62
     7
370
    25
100
AcDb2dPolyline
 66
     1
 10
0.0
 20
0.0
 30
0.0
  0
VERTEX
  5
47C
330
47B
100
AcDbEntity
  8
Layer 1
 62
     7
370
    25
100
AcDbVertex
100
AcDb2dVertex
 10
354.1585719600715
 20
1169.639200553944
 30
0.0
  0
VERTEX
  5
47D
330
47B
100
AcDbEntity
  8
Layer 1
 62
     7
370
    25
100
AcDbVertex
100
AcDb2dVertex
 10
354.1585719600715
 20
1176.69492836251
 30
0.0
  0
SEQEND
  5
47E
330
47B
100
AcDbEntity
  8
Layer 1
370
    25
  0
POLYLINE
  5
47F
330
3C
100
AcDbEntity
  8
Layer 1
 62
     7
370
    25
100
AcDb2dPolyline
 66
     1
 10
0.0
 20
0.0
 30
0.0
  0
VERTEX
  5
480
330
47F
100
AcDbEntity
  8
Layer 1
 62
     7
370
    25
100
AcDbVertex
100
AcDb2dVertex
 10
354.1585719600715
 20
1176.69492836251
 30
0.0
  0
VERTEX
  5
481
330
47F
100
AcDbEntity
  8
Layer 1
 62
     7
370
    25
100
AcDbVertex
100
AcDb2dVertex
 10
348.8669052947278
 20
1183.750311661528
 30
0.0
  0
SEQEND
  5
482
330
47F
100
AcDbEntity
  8
Layer 1
370
    25
  0
POLYLINE
  5
483
330
3C
100
AcDbEntity
  8
Layer 1
 62
     7
370
    25
100
AcDb2dPolyline
 66
     1
 10
0.0
 20
0.0
 30
0.0
  0
VERTEX
  5
484
330
483
100
AcDbEntity
  8
Layer 1
 62
     7
370
    25
100
AcDbVertex
100
AcDb2dVertex
 10
348.8669052947278
 20
1183.750311661528
 30
0.0
  0
VERTEX
  5
485
330
483
100
AcDbEntity
  8
Layer 1
 62
     7
370
    25
100
AcDbVertex
100
AcDb2dVertex
 10
338.2835719640402
 20
1183.750311661528
 30
0.0
  0
SEQEND
  5
486
330
483
100
AcDbEntity
  8
Layer 1
370
    25
  0
POLYLINE
  5
487
330
3C
100
AcDbEntity
  8
Layer 1
 62
     7
370
    25
100
AcDb2dPolyline
 66
     1
 10
0.0
 20
0.0
 30
0.0
  0
VERTEX
  5
488
330
487
100
AcDbEntity
  8
Layer 1
 62
     7
370
    25
100
AcDbVertex
100
AcDb2dVertex
 10
338.2835719640402
 20
1183.750311661528
 30
0.0
  0
VERTEX
  5
489
330
487
100
AcDbEntity
  8
Layer 1
 62
     7
370
    25
100
AcDbVertex
100
AcDb2dVertex
 10
332.991560789148
 20
1190.806039470094
 30
0.0
  0
SEQEND
  5
48A
330
487
100
AcDbEntity
  8
Layer 1
370
    25
  0
POLYLINE
  5
48B
330
3C
100
AcDbEntity
  8
Layer 1
 62
     7
370
    25
100
AcDb2dPolyline
 66
     1
 10
0.0
 20
0.0
 30
0.0
  0
VERTEX
  5
48C
330
48B
100
AcDbEntity
  8
Layer 1
 62
     7
370
    25
100
AcDbVertex
100
AcDb2dVertex
 10
332.991560789148
 20
1190.806039470094
 30
0.0
  0
VERTEX
  5
48D
330
48B
100
AcDbEntity
  8
Layer 1
 62
     7
370
    25
100
AcDbVertex
100
AcDb2dVertex
 10
332.991560789148
 20
1197.861422769111
 30
0.0
  0
SEQEND
  5
48E
330
48B
100
AcDbEntity
  8
Layer 1
370
    25
  0
POLYLINE
  5
48F
330
3C
100
AcDbEntity
  8
Layer 1
 62
     7
370
    25
100
AcDb2dPolyline
 66
     1
 10
0.0
 20
0.0
 30
0.0
  0
VERTEX
  5
490
330
48F
100
AcDbEntity
  8
Layer 1
 62
     7
370
    25
100
AcDbVertex
100
AcDb2dVertex
 10
332.991560789148
 20
1197.861422769111
 30
0.0
  0
VERTEX
  5
491
330
48F
100
AcDbEntity
  8
Layer 1
 62
     7
370
    25
100
AcDbVertex
100
AcDb2dVertex
 10
338.2835719640402
 20
1204.917150577677
 30
0.0
  0
SEQEND
  5
492
330
48F
100
AcDbEntity
  8
Layer 1
370
    25
  0
POLYLINE
  5
493
330
3C
100
AcDbEntity
  8
Layer 1
 62
     7
370
    25
100
AcDb2dPolyline
 66
     1
 10
0.0
 20
0.0
 30
0.0
  0
VERTEX
  5
494
330
493
100
AcDbEntity
  8
Layer 1
 62
     7
370
    25
100
AcDbVertex
100
AcDb2dVertex
 10
338.2835719640402
 20
1204.917150577677
 30
0.0
  0
VERTEX
  5
495
330
493
100
AcDbEntity
  8
Layer 1
 62
     7
370
    25
100
AcDbVertex
100
AcDb2dVertex
 10
348.8669052947278
 20
1204.917150577677
 30
0.0
  0
SEQEND
  5
496
330
493
100
AcDbEntity
  8
Layer 1
370
    25
  0
POLYLINE
  5
497
330
3C
100
AcDbEntity
  8
Layer 1
 62
     7
370
    25
100
AcDb2dPolyline
 66
     1
 10
0.0
 20
0.0
 30
0.0
  0
VERTEX
  5
498
330
497
100
AcDbEntity
  8
Layer 1
 62
     7
370
    25
100
AcDbVertex
100
AcDb2dVertex
 10
348.8669052947278
 20
1204.917150577677
 30
0.0
  0
VERTEX
  5
499
330
497
100
AcDbEntity
  8
Layer 1
 62
     7
370
    25
100
AcDbVertex
100
AcDb2dVertex
 10
354.1585719600715
 20
1197.861422769111
 30
0.0
  0
SEQEND
  5
49A
330
497
100
AcDbEntity
  8
Layer 1
370
    25
  0
POLYLINE
  5
49B
330
3C
100
AcDbEntity
  8
Layer 1
 62
     7
370
    25
100
AcDb2dPolyline
 66
     1
 10
0.0
 20
0.0
 30
0.0
  0
VERTEX
  5
49C
330
49B
100
AcDbEntity
  8
Layer 1
 62
     7
370
    25
100
AcDbVertex
100
AcDb2dVertex
 10
354.1585719600715
 20
1197.861422769111
 30
0.0
  0
VERTEX
  5
49D
330
49B
100
AcDbEntity
  8
Layer 1
 62
     7
370
    25
100
AcDbVertex
100
AcDb2dVertex
 10
354.1585719600715
 20
1190.806039470094
 30
0.0
  0
SEQEND
  5
49E
330
49B
100
AcDbEntity
  8
Layer 1
370
    25
  0
POLYLINE
  5
49F
330
3C
100
AcDbEntity
  8
Layer 1
 62
     7
370
    25
100
AcDb2dPolyline
 66
     1
 10
0.0
 20
0.0
 30
0.0
  0
VERTEX
  5
4A0
330
49F
100
AcDbEntity
  8
Layer 1
 62
     7
370
    25
100
AcDbVertex
100
AcDb2dVertex
 10
354.1585719600715
 20
1190.806039470094
 30
0.0
  0
VERTEX
  5
4A1
330
49F
100
AcDbEntity
  8
Layer 1
 62
     7
370
    25
100
AcDbVertex
100
AcDb2dVertex
 10
348.8669052947278
 20
1183.750311661528
 30
0.0
  0
SEQEND
  5
4A2
330
49F
100
AcDbEntity
  8
Layer 1
370
    25
  0
POLYLINE
  5
4A3
330
3C
100
AcDbEntity
  8
Layer 1
 62
     7
370
    25
100
AcDb2dPolyline
 66
     1
 10
0.0
 20
0.0
 30
0.0
  0
VERTEX
  5
4A4
330
4A3
100
AcDbEntity
  8
Layer 1
 62
     7
370
    25
100
AcDbVertex
100
AcDb2dVertex
 10
338.2835719640402
 20
1183.750311661528
 30
0.0
  0
VERTEX
  5
4A5
330
4A3
100
AcDbEntity
  8
Layer 1
 62
     7
370
    25
100
AcDbVertex
100
AcDb2dVertex
 10
332.991560789148
 20
1176.69492836251
 30
0.0
  0
SEQEND
  5
4A6
330
4A3
100
AcDbEntity
  8
Layer 1
370
    25
  0
POLYLINE
  5
4A7
330
3C
100
AcDbEntity
  8
Layer 1
 62
     7
370
    25
100
AcDb2dPolyline
 66
     1
 10
0.0
 20
0.0
 30
0.0
  0
VERTEX
  5
4A8
330
4A7
100
AcDbEntity
  8
Layer 1
 62
     7
370
    25
100
AcDbVertex
100
AcDb2dVertex
 10
332.991560789148
 20
1176.69492836251
 30
0.0
  0
VERTEX
  5
4A9
330
4A7
100
AcDbEntity
  8
Layer 1
 62
     7
370
    25
100
AcDbVertex
100
AcDb2dVertex
 10
332.991560789148
 20
1169.639200553944
 30
0.0
  0
SEQEND
  5
4AA
330
4A7
100
AcDbEntity
  8
Layer 1
370
    25
  0
POLYLINE
  5
4AB
330
3C
100
AcDbEntity
  8
Layer 1
 62
     7
370
    25
100
AcDb2dPolyline
 66
     1
 10
0.0
 20
0.0
 30
0.0
  0
VERTEX
  5
4AC
330
4AB
100
AcDbEntity
  8
Layer 1
 62
     7
370
    25
100
AcDbVertex
100
AcDb2dVertex
 10
332.991560789148
 20
1169.639200553944
 30
0.0
  0
VERTEX
  5
4AD
330
4AB
100
AcDbEntity
  8
Layer 1
 62
     7
370
    25
100
AcDbVertex
100
AcDb2dVertex
 10
338.2835719640402
 20
1162.583817254927
 30
0.0
  0
SEQEND
  5
4AE
330
4AB
100
AcDbEntity
  8
Layer 1
370
    25
  0
POLYLINE
  5
4AF
330
3C
100
AcDbEntity
  8
Layer 1
 62
     7
370
    25
100
AcDb2dPolyline
 66
     1
 10
0.0
 20
0.0
 30
0.0
  0
VERTEX
  5
4B0
330
4AF
100
AcDbEntity
  8
Layer 1
 62
     7
370
    25
100
AcDbVertex
100
AcDb2dVertex
 10
370.0339164656513
 20
1162.583817254927
 30
0.0
  0
VERTEX
  5
4B1
330
4AF
100
AcDbEntity
  8
Layer 1
 62
     7
370
    25
100
AcDbVertex
100
AcDb2dVertex
 10
364.741905290759
 20
1169.639200553944
 30
0.0
  0
SEQEND
  5
4B2
330
4AF
100
AcDbEntity
  8
Layer 1
370
    25
  0
POLYLINE
  5
4B3
330
3C
100
AcDbEntity
  8
Layer 1
 62
     7
370
    25
100
AcDb2dPolyline
 66
     1
 10
0.0
 20
0.0
 30
0.0
  0
VERTEX
  5
4B4
330
4B3
100
AcDbEntity
  8
Layer 1
 62
     7
370
    25
100
AcDbVertex
100
AcDb2dVertex
 10
364.741905290759
 20
1169.639200553944
 30
0.0
  0
VERTEX
  5
4B5
330
4B3
100
AcDbEntity
  8
Layer 1
 62
     7
370
    25
100
AcDbVertex
100
AcDb2dVertex
 10
364.741905290759
 20
1197.861422769111
 30
0.0
  0
SEQEND
  5
4B6
330
4B3
100
AcDbEntity
  8
Layer 1
370
    25
  0
POLYLINE
  5
4B7
330
3C
100
AcDbEntity
  8
Layer 1
 62
     7
370
    25
100
AcDb2dPolyline
 66
     1
 10
0.0
 20
0.0
 30
0.0
  0
VERTEX
  5
4B8
330
4B7
100
AcDbEntity
  8
Layer 1
 62
     7
370
    25
100
AcDbVertex
100
AcDb2dVertex
 10
364.741905290759
 20
1197.861422769111
 30
0.0
  0
VERTEX
  5
4B9
330
4B7
100
AcDbEntity
  8
Layer 1
 62
     7
370
    25
100
AcDbVertex
100
AcDb2dVertex
 10
370.0339164656513
 20
1204.917150577677
 30
0.0
  0
SEQEND
  5
4BA
330
4B7
100
AcDbEntity
  8
Layer 1
370
    25
  0
POLYLINE
  5
4BB
330
3C
100
AcDbEntity
  8
Layer 1
 62
     7
370
    25
100
AcDb2dPolyline
 66
     1
 10
0.0
 20
0.0
 30
0.0
  0
VERTEX
  5
4BC
330
4BB
100
AcDbEntity
  8
Layer 1
 62
     7
370
    25
100
AcDbVertex
100
AcDb2dVertex
 10
370.0339164656513
 20
1204.917150577677
 30
0.0
  0
VERTEX
  5
4BD
330
4BB
100
AcDbEntity
  8
Layer 1
 62
     7
370
    25
100
AcDbVertex
100
AcDb2dVertex
 10
375.325583130995
 20
1204.917150577677
 30
0.0
  0
SEQEND
  5
4BE
330
4BB
100
AcDbEntity
  8
Layer 1
370
    25
  0
POLYLINE
  5
4BF
330
3C
100
AcDbEntity
  8
Layer 1
 62
     7
370
    25
100
AcDb2dPolyline
 66
     1
 10
0.0
 20
0.0
 30
0.0
  0
VERTEX
  5
4C0
330
4BF
100
AcDbEntity
  8
Layer 1
 62
     7
370
    25
100
AcDbVertex
100
AcDb2dVertex
 10
375.325583130995
 20
1204.917150577677
 30
0.0
  0
VERTEX
  5
4C1
330
4BF
100
AcDbEntity
  8
Layer 1
 62
     7
370
    25
100
AcDbVertex
100
AcDb2dVertex
 10
380.6172497963387
 20
1197.861422769111
 30
0.0
  0
SEQEND
  5
4C2
330
4BF
100
AcDbEntity
  8
Layer 1
370
    25
  0
POLYLINE
  5
4C3
330
3C
100
AcDbEntity
  8
Layer 1
 62
     7
370
    25
100
AcDb2dPolyline
 66
     1
 10
0.0
 20
0.0
 30
0.0
  0
VERTEX
  5
4C4
330
4C3
100
AcDbEntity
  8
Layer 1
 62
     7
370
    25
100
AcDbVertex
100
AcDb2dVertex
 10
380.6172497963387
 20
1197.861422769111
 30
0.0
  0
VERTEX
  5
4C5
330
4C3
100
AcDbEntity
  8
Layer 1
 62
     7
370
    25
100
AcDbVertex
100
AcDb2dVertex
 10
380.6172497963387
 20
1169.639200553944
 30
0.0
  0
SEQEND
  5
4C6
330
4C3
100
AcDbEntity
  8
Layer 1
370
    25
  0
POLYLINE
  5
4C7
330
3C
100
AcDbEntity
  8
Layer 1
 62
     7
370
    25
100
AcDb2dPolyline
 66
     1
 10
0.0
 20
0.0
 30
0.0
  0
VERTEX
  5
4C8
330
4C7
100
AcDbEntity
  8
Layer 1
 62
     7
370
    25
100
AcDbVertex
100
AcDb2dVertex
 10
380.6172497963387
 20
1169.639200553944
 30
0.0
  0
VERTEX
  5
4C9
330
4C7
100
AcDbEntity
  8
Layer 1
 62
     7
370
    25
100
AcDbVertex
100
AcDb2dVertex
 10
375.325583130995
 20
1162.583817254927
 30
0.0
  0
SEQEND
  5
4CA
330
4C7
100
AcDbEntity
  8
Layer 1
370
    25
  0
POLYLINE
  5
4CB
330
3C
100
AcDbEntity
  8
Layer 1
 62
     7
370
    25
100
AcDb2dPolyline
 66
     1
 10
0.0
 20
0.0
 30
0.0
  0
VERTEX
  5
4CC
330
4CB
100
AcDbEntity
  8
Layer 1
 62
     7
370
    25
100
AcDbVertex
100
AcDb2dVertex
 10
375.325583130995
 20
1162.583817254927
 30
0.0
  0
VERTEX
  5
4CD
330
4CB
100
AcDbEntity
  8
Layer 1
 62
     7
370
    25
100
AcDbVertex
100
AcDb2dVertex
 10
370.0339164656513
 20
1162.583817254927
 30
0.0
  0
SEQEND
  5
4CE
330
4CB
100
AcDbEntity
  8
Layer 1
370
    25
  0
POLYLINE
  5
4CF
330
3C
100
AcDbEntity
  8
Layer 1
370
     0
100
AcDb2dPolyline
 66
     1
 10
0.0
 20
0.0
 30
0.0
  0
VERTEX
  5
4D0
330
4CF
100
AcDbEntity
  8
Layer 1
370
     0
100
AcDbVertex
100
AcDb2dVertex
 10
580.3301240953689
 20
1150.346493581771
 30
0.0
  0
VERTEX
  5
4D1
330
4CF
100
AcDbEntity
  8
Layer 1
370
     0
100
AcDbVertex
100
AcDb2dVertex
 10
610.3300155809245
 20
1155.346705169063
 30
0.0
  0
VERTEX
  5
4D2
330
4CF
100
AcDbEntity
  8
Layer 1
370
     0
100
AcDbVertex
100
AcDb2dVertex
 10
610.3300155809245
 20
1145.346454249254
 30
0.0
  0
SEQEND
  5
4D3
330
4CF
100
AcDbEntity
  8
Layer 1
370
     0
  0
HATCH
  5
4D4
330
3C
100
AcDbEntity
  8
Layer 1
 62
     7
100
AcDbHatch
 10
0.0
 20
0.0
 30
0.0
210
0.0
220
0.0
230
1.0
  2
SOLID
 70
     1
 71
     0
 91
        1
 92
        1
 93
        3
 72
     1
 10
580.3301240953689
 20
1150.346493581771
 11
610.3300155809245
 21
1155.346705169063
 72
     1
 10
610.3300155809245
 20
1155.346705169063
 11
610.3300155809245
 21
1145.346454249254
 72
     1
 10
610.3300155809245
 20
1145.346454249254
 11
580.3301240953689
 21
1150.346493581771
 97
        0
 75
     2
 76
     1
 98
        0
  0
POLYLINE
  5
4D5
330
3C
100
AcDbEntity
  8
Layer 1
370
     0
100
AcDb2dPolyline
 66
     1
 10
0.0
 20
0.0
 30
0.0
  0
VERTEX
  5
4D6
330
4D5
100
AcDbEntity
  8
Layer 1
370
     0
100
AcDbVertex
100
AcDb2dVertex
 10
555.3297551780079
 20
1150.346493581771
 30
0.0
  0
VERTEX
  5
4D7
330
4D5
100
AcDbEntity
  8
Layer 1
370
     0
100
AcDbVertex
100
AcDb2dVertex
 10
525.3298636924522
 20
1145.346454249254
 30
0.0
  0
VERTEX
  5
4D8
330
4D5
100
AcDbEntity
  8
Layer 1
370
     0
100
AcDbVertex
100
AcDb2dVertex
 10
525.3298636924522
 20
1155.346705169063
 30
0.0
  0
SEQEND
  5
4D9
330
4D5
100
AcDbEntity
  8
Layer 1
370
     0
  0
HATCH
  5
4DA
330
3C
100
AcDbEntity
  8
Layer 1
 62
     7
100
AcDbHatch
 10
0.0
 20
0.0
 30
0.0
210
0.0
220
0.0
230
1.0
  2
SOLID
 70
     1
 71
     0
 91
        1
 92
        1
 93
        3
 72
     1
 10
555.3297551780079
 20
1150.346493581771
 11
525.3298636924522
 21
1145.346454249254
 72
     1
 10
525.3298636924522
 20
1145.346454249254
 11
525.3298636924522
 21
1155.346705169063
 72
     1
 10
525.3298636924522
 20
1155.346705169063
 11
555.3297551780079
 21
1150.346493581771
 97
        0
 75
     2
 76
     1
 98
        0
  0
POLYLINE
  5
4DB
330
3C
100
AcDbEntity
  8
Layer 1
 62
     7
370
    25
100
AcDb2dPolyline
 66
     1
 10
0.0
 20
0.0
 30
0.0
  0
VERTEX
  5
4DC
330
4DB
100
AcDbEntity
  8
Layer 1
 62
     7
370
    25
100
AcDbVertex
100
AcDb2dVertex
 10
580.3301240953689
 20
1069.372969296459
 30
0.0
  0
VERTEX
  5
4DD
330
4DB
100
AcDbEntity
  8
Layer 1
 62
     7
370
    25
100
AcDbVertex
100
AcDb2dVertex
 10
580.3301240953689
 20
1160.346399992032
 30
0.0
  0
SEQEND
  5
4DE
330
4DB
100
AcDbEntity
  8
Layer 1
370
    25
  0
POLYLINE
  5
4DF
330
3C
100
AcDbEntity
  8
Layer 1
 62
     7
370
    25
100
AcDb2dPolyline
 66
     1
 10
0.0
 20
0.0
 30
0.0
  0
VERTEX
  5
4E0
330
4DF
100
AcDbEntity
  8
Layer 1
 62
     7
370
    25
100
AcDbVertex
100
AcDb2dVertex
 10
555.3297551780079
 20
1069.372969296459
 30
0.0
  0
VERTEX
  5
4E1
330
4DF
100
AcDbEntity
  8
Layer 1
 62
     7
370
    25
100
AcDbVertex
100
AcDb2dVertex
 10
555.3297551780079
 20
1160.346399992032
 30
0.0
  0
SEQEND
  5
4E2
330
4DF
100
AcDbEntity
  8
Layer 1
370
    25
  0
POLYLINE
  5
4E3
330
3C
100
AcDbEntity
  8
Layer 1
 62
     7
370
    25
100
AcDb2dPolyline
 66
     1
 10
0.0
 20
0.0
 30
0.0
  0
VERTEX
  5
4E4
330
4E3
100
AcDbEntity
  8
Layer 1
 62
     7
370
    25
100
AcDbVertex
100
AcDb2dVertex
 10
580.3301240953689
 20
1150.346493581771
 30
0.0
  0
VERTEX
  5
4E5
330
4E3
100
AcDbEntity
  8
Layer 1
 62
     7
370
    25
100
AcDbVertex
100
AcDb2dVertex
 10
698.7587264963173
 20
1150.346493581771
 30
0.0
  0
SEQEND
  5
4E6
330
4E3
100
AcDbEntity
  8
Layer 1
370
    25
  0
POLYLINE
  5
4E7
330
3C
100
AcDbEntity
  8
Layer 1
 62
     7
370
    25
100
AcDb2dPolyline
 66
     1
 10
0.0
 20
0.0
 30
0.0
  0
VERTEX
  5
4E8
330
4E7
100
AcDbEntity
  8
Layer 1
 62
     7
370
    25
100
AcDbVertex
100
AcDb2dVertex
 10
580.3301240953689
 20
1150.346493581771
 30
0.0
  0
VERTEX
  5
4E9
330
4E7
100
AcDbEntity
  8
Layer 1
 62
     7
370
    25
100
AcDbVertex
100
AcDb2dVertex
 10
555.3297551780079
 20
1150.346493581771
 30
0.0
  0
SEQEND
  5
4EA
330
4E7
100
AcDbEntity
  8
Layer 1
370
    25
  0
POLYLINE
  5
4EB
330
3C
100
AcDbEntity
  8
Layer 1
 62
     7
370
    25
100
AcDb2dPolyline
 66
     1
 10
0.0
 20
0.0
 30
0.0
  0
VERTEX
  5
4EC
330
4EB
100
AcDbEntity
  8
Layer 1
 62
     7
370
    25
100
AcDbVertex
100
AcDb2dVertex
 10
555.3297551780079
 20
1150.346493581771
 30
0.0
  0
VERTEX
  5
4ED
330
4EB
100
AcDbEntity
  8
Layer 1
 62
     7
370
    25
100
AcDbVertex
100
AcDb2dVertex
 10
495.3296276973481
 20
1150.346493581771
 30
0.0
  0
SEQEND
  5
4EE
330
4EB
100
AcDbEntity
  8
Layer 1
370
    25
  0
POLYLINE
  5
4EF
330
3C
100
AcDbEntity
  8
Layer 1
 62
     7
370
    25
100
AcDb2dPolyline
 66
     1
 10
0.0
 20
0.0
 30
0.0
  0
VERTEX
  5
4F0
330
4EF
100
AcDbEntity
  8
Layer 1
 62
     7
370
    25
100
AcDbVertex
100
AcDb2dVertex
 10
601.8630044068259
 20
1197.861422769111
 30
0.0
  0
VERTEX
  5
4F1
330
4EF
100
AcDbEntity
  8
Layer 1
 62
     7
370
    25
100
AcDbVertex
100
AcDb2dVertex
 10
607.1546710721697
 20
1204.917150577677
 30
0.0
  0
SEQEND
  5
4F2
330
4EF
100
AcDbEntity
  8
Layer 1
370
    25
  0
POLYLINE
  5
4F3
330
3C
100
AcDbEntity
  8
Layer 1
 62
     7
370
    25
100
AcDb2dPolyline
 66
     1
 10
0.0
 20
0.0
 30
0.0
  0
VERTEX
  5
4F4
330
4F3
100
AcDbEntity
  8
Layer 1
 62
     7
370
    25
100
AcDbVertex
100
AcDb2dVertex
 10
607.1546710721697
 20
1204.917150577677
 30
0.0
  0
VERTEX
  5
4F5
330
4F3
100
AcDbEntity
  8
Layer 1
 62
     7
370
    25
100
AcDbVertex
100
AcDb2dVertex
 10
617.7380044028572
 20
1204.917150577677
 30
0.0
  0
SEQEND
  5
4F6
330
4F3
100
AcDbEntity
  8
Layer 1
370
    25
  0
POLYLINE
  5
4F7
330
3C
100
AcDbEntity
  8
Layer 1
 62
     7
370
    25
100
AcDb2dPolyline
 66
     1
 10
0.0
 20
0.0
 30
0.0
  0
VERTEX
  5
4F8
330
4F7
100
AcDbEntity
  8
Layer 1
 62
     7
370
    25
100
AcDbVertex
100
AcDb2dVertex
 10
617.7380044028572
 20
1204.917150577677
 30
0.0
  0
VERTEX
  5
4F9
330
4F7
100
AcDbEntity
  8
Layer 1
 62
     7
370
    25
100
AcDbVertex
100
AcDb2dVertex
 10
623.0289820491039
 20
1197.861422769111
 30
0.0
  0
SEQEND
  5
4FA
330
4F7
100
AcDbEntity
  8
Layer 1
370
    25
  0
POLYLINE
  5
4FB
330
3C
100
AcDbEntity
  8
Layer 1
 62
     7
370
    25
100
AcDb2dPolyline
 66
     1
 10
0.0
 20
0.0
 30
0.0
  0
VERTEX
  5
4FC
330
4FB
100
AcDbEntity
  8
Layer 1
 62
     7
370
    25
100
AcDbVertex
100
AcDb2dVertex
 10
623.0289820491039
 20
1197.861422769111
 30
0.0
  0
VERTEX
  5
4FD
330
4FB
100
AcDbEntity
  8
Layer 1
 62
     7
370
    25
100
AcDbVertex
100
AcDb2dVertex
 10
623.0289820491039
 20
1190.806039470094
 30
0.0
  0
SEQEND
  5
4FE
330
4FB
100
AcDbEntity
  8
Layer 1
370
    25
  0
POLYLINE
  5
4FF
330
3C
100
AcDbEntity
  8
Layer 1
 62
     7
370
    25
100
AcDb2dPolyline
 66
     1
 10
0.0
 20
0.0
 30
0.0
  0
VERTEX
  5
500
330
4FF
100
AcDbEntity
  8
Layer 1
 62
     7
370
    25
100
AcDbVertex
100
AcDb2dVertex
 10
623.0289820491039
 20
1190.806039470094
 30
0.0
  0
VERTEX
  5
501
330
4FF
100
AcDbEntity
  8
Layer 1
 62
     7
370
    25
100
AcDbVertex
100
AcDb2dVertex
 10
617.7380044028572
 20
1183.750311661528
 30
0.0
  0
SEQEND
  5
502
330
4FF
100
AcDbEntity
  8
Layer 1
370
    25
  0
POLYLINE
  5
503
330
3C
100
AcDbEntity
  8
Layer 1
 62
     7
370
    25
100
AcDb2dPolyline
 66
     1
 10
0.0
 20
0.0
 30
0.0
  0
VERTEX
  5
504
330
503
100
AcDbEntity
  8
Layer 1
 62
     7
370
    25
100
AcDbVertex
100
AcDb2dVertex
 10
617.7380044028572
 20
1183.750311661528
 30
0.0
  0
VERTEX
  5
505
330
503
100
AcDbEntity
  8
Layer 1
 62
     7
370
    25
100
AcDbVertex
100
AcDb2dVertex
 10
607.1546710721697
 20
1183.750311661528
 30
0.0
  0
SEQEND
  5
506
330
503
100
AcDbEntity
  8
Layer 1
370
    25
  0
POLYLINE
  5
507
330
3C
100
AcDbEntity
  8
Layer 1
 62
     7
370
    25
100
AcDb2dPolyline
 66
     1
 10
0.0
 20
0.0
 30
0.0
  0
VERTEX
  5
508
330
507
100
AcDbEntity
  8
Layer 1
 62
     7
370
    25
100
AcDbVertex
100
AcDb2dVertex
 10
607.1546710721697
 20
1183.750311661528
 30
0.0
  0
VERTEX
  5
509
330
507
100
AcDbEntity
  8
Layer 1
 62
     7
370
    25
100
AcDbVertex
100
AcDb2dVertex
 10
601.8630044068259
 20
1176.69492836251
 30
0.0
  0
SEQEND
  5
50A
330
507
100
AcDbEntity
  8
Layer 1
370
    25
  0
POLYLINE
  5
50B
330
3C
100
AcDbEntity
  8
Layer 1
 62
     7
370
    25
100
AcDb2dPolyline
 66
     1
 10
0.0
 20
0.0
 30
0.0
  0
VERTEX
  5
50C
330
50B
100
AcDbEntity
  8
Layer 1
 62
     7
370
    25
100
AcDbVertex
100
AcDb2dVertex
 10
601.8630044068259
 20
1176.69492836251
 30
0.0
  0
VERTEX
  5
50D
330
50B
100
AcDbEntity
  8
Layer 1
 62
     7
370
    25
100
AcDbVertex
100
AcDb2dVertex
 10
601.8630044068259
 20
1162.583817254927
 30
0.0
  0
SEQEND
  5
50E
330
50B
100
AcDbEntity
  8
Layer 1
370
    25
  0
POLYLINE
  5
50F
330
3C
100
AcDbEntity
  8
Layer 1
 62
     7
370
    25
100
AcDb2dPolyline
 66
     1
 10
0.0
 20
0.0
 30
0.0
  0
VERTEX
  5
510
330
50F
100
AcDbEntity
  8
Layer 1
 62
     7
370
    25
100
AcDbVertex
100
AcDb2dVertex
 10
601.8630044068259
 20
1162.583817254927
 30
0.0
  0
VERTEX
  5
511
330
50F
100
AcDbEntity
  8
Layer 1
 62
     7
370
    25
100
AcDbVertex
100
AcDb2dVertex
 10
623.0289820491039
 20
1162.583817254927
 30
0.0
  0
SEQEND
  5
512
330
50F
100
AcDbEntity
  8
Layer 1
370
    25
  0
POLYLINE
  5
513
330
3C
100
AcDbEntity
  8
Layer 1
 62
     7
370
    25
100
AcDb2dPolyline
 66
     1
 10
0.0
 20
0.0
 30
0.0
  0
VERTEX
  5
514
330
513
100
AcDbEntity
  8
Layer 1
 62
     7
370
    25
100
AcDbVertex
100
AcDb2dVertex
 10
633.6123153797914
 20
1169.639200553944
 30
0.0
  0
VERTEX
  5
515
330
513
100
AcDbEntity
  8
Layer 1
 62
     7
370
    25
100
AcDbVertex
100
AcDb2dVertex
 10
638.9043265546836
 20
1162.583817254927
 30
0.0
  0
SEQEND
  5
516
330
513
100
AcDbEntity
  8
Layer 1
370
    25
  0
POLYLINE
  5
517
330
3C
100
AcDbEntity
  8
Layer 1
 62
     7
370
    25
100
AcDb2dPolyline
 66
     1
 10
0.0
 20
0.0
 30
0.0
  0
VERTEX
  5
518
330
517
100
AcDbEntity
  8
Layer 1
 62
     7
370
    25
100
AcDbVertex
100
AcDb2dVertex
 10
638.9043265546836
 20
1162.583817254927
 30
0.0
  0
VERTEX
  5
519
330
517
100
AcDbEntity
  8
Layer 1
 62
     7
370
    25
100
AcDbVertex
100
AcDb2dVertex
 10
649.4876598853712
 20
1162.583817254927
 30
0.0
  0
SEQEND
  5
51A
330
517
100
AcDbEntity
  8
Layer 1
370
    25
  0
POLYLINE
  5
51B
330
3C
100
AcDbEntity
  8
Layer 1
 62
     7
370
    25
100
AcDb2dPolyline
 66
     1
 10
0.0
 20
0.0
 30
0.0
  0
VERTEX
  5
51C
330
51B
100
AcDbEntity
  8
Layer 1
 62
     7
370
    25
100
AcDbVertex
100
AcDb2dVertex
 10
649.4876598853712
 20
1162.583817254927
 30
0.0
  0
VERTEX
  5
51D
330
51B
100
AcDbEntity
  8
Layer 1
 62
     7
370
    25
100
AcDbVertex
100
AcDb2dVertex
 10
654.7793265507149
 20
1169.639200553944
 30
0.0
  0
SEQEND
  5
51E
330
51B
100
AcDbEntity
  8
Layer 1
370
    25
  0
POLYLINE
  5
51F
330
3C
100
AcDbEntity
  8
Layer 1
 62
     7
370
    25
100
AcDb2dPolyline
 66
     1
 10
0.0
 20
0.0
 30
0.0
  0
VERTEX
  5
520
330
51F
100
AcDbEntity
  8
Layer 1
 62
     7
370
    25
100
AcDbVertex
100
AcDb2dVertex
 10
654.7793265507149
 20
1169.639200553944
 30
0.0
  0
VERTEX
  5
521
330
51F
100
AcDbEntity
  8
Layer 1
 62
     7
370
    25
100
AcDbVertex
100
AcDb2dVertex
 10
654.7793265507149
 20
1183.750311661528
 30
0.0
  0
SEQEND
  5
522
330
51F
100
AcDbEntity
  8
Layer 1
370
    25
  0
POLYLINE
  5
523
330
3C
100
AcDbEntity
  8
Layer 1
 62
     7
370
    25
100
AcDb2dPolyline
 66
     1
 10
0.0
 20
0.0
 30
0.0
  0
VERTEX
  5
524
330
523
100
AcDbEntity
  8
Layer 1
 62
     7
370
    25
100
AcDbVertex
100
AcDb2dVertex
 10
654.7793265507149
 20
1183.750311661528
 30
0.0
  0
VERTEX
  5
525
330
523
100
AcDbEntity
  8
Layer 1
 62
     7
370
    25
100
AcDbVertex
100
AcDb2dVertex
 10
649.4876598853712
 20
1190.806039470094
 30
0.0
  0
SEQEND
  5
526
330
523
100
AcDbEntity
  8
Layer 1
370
    25
  0
POLYLINE
  5
527
330
3C
100
AcDbEntity
  8
Layer 1
 62
     7
370
    25
100
AcDb2dPolyline
 66
     1
 10
0.0
 20
0.0
 30
0.0
  0
VERTEX
  5
528
330
527
100
AcDbEntity
  8
Layer 1
 62
     7
370
    25
100
AcDbVertex
100
AcDb2dVertex
 10
649.4876598853712
 20
1190.806039470094
 30
0.0
  0
VERTEX
  5
529
330
527
100
AcDbEntity
  8
Layer 1
 62
     7
370
    25
100
AcDbVertex
100
AcDb2dVertex
 10
633.6123153797914
 20
1190.806039470094
 30
0.0
  0
SEQEND
  5
52A
330
527
100
AcDbEntity
  8
Layer 1
370
    25
  0
POLYLINE
  5
52B
330
3C
100
AcDbEntity
  8
Layer 1
 62
     7
370
    25
100
AcDb2dPolyline
 66
     1
 10
0.0
 20
0.0
 30
0.0
  0
VERTEX
  5
52C
330
52B
100
AcDbEntity
  8
Layer 1
 62
     7
370
    25
100
AcDbVertex
100
AcDb2dVertex
 10
633.6123153797914
 20
1190.806039470094
 30
0.0
  0
VERTEX
  5
52D
330
52B
100
AcDbEntity
  8
Layer 1
 62
     7
370
    25
100
AcDbVertex
100
AcDb2dVertex
 10
633.6123153797914
 20
1204.917150577677
 30
0.0
  0
SEQEND
  5
52E
330
52B
100
AcDbEntity
  8
Layer 1
370
    25
  0
POLYLINE
  5
52F
330
3C
100
AcDbEntity
  8
Layer 1
 62
     7
370
    25
100
AcDb2dPolyline
 66
     1
 10
0.0
 20
0.0
 30
0.0
  0
VERTEX
  5
530
330
52F
100
AcDbEntity
  8
Layer 1
 62
     7
370
    25
100
AcDbVertex
100
AcDb2dVertex
 10
633.6123153797914
 20
1204.917150577677
 30
0.0
  0
VERTEX
  5
531
330
52F
100
AcDbEntity
  8
Layer 1
 62
     7
370
    25
100
AcDbVertex
100
AcDb2dVertex
 10
654.7793265507149
 20
1204.917150577677
 30
0.0
  0
SEQEND
  5
532
330
52F
100
AcDbEntity
  8
Layer 1
370
    25
  0
POLYLINE
  5
533
330
3C
100
AcDbEntity
  8
Layer 1
370
     0
100
AcDb2dPolyline
 66
     1
 10
0.0
 20
0.0
 30
0.0
  0
VERTEX
  5
534
330
533
100
AcDbEntity
  8
Layer 1
370
     0
100
AcDbVertex
100
AcDb2dVertex
 10
175.3302110021744
 20
1150.346493581771
 30
0.0
  0
VERTEX
  5
535
330
533
100
AcDbEntity
  8
Layer 1
370
     0
100
AcDbVertex
100
AcDb2dVertex
 10
205.3302747425043
 20
1155.346705169063
 30
0.0
  0
VERTEX
  5
536
330
533
100
AcDbEntity
  8
Layer 1
370
     0
100
AcDbVertex
100
AcDb2dVertex
 10
205.3302747425043
 20
1145.346454249254
 30
0.0
  0
SEQEND
  5
537
330
533
100
AcDbEntity
  8
Layer 1
370
     0
  0
HATCH
  5
538
330
3C
100
AcDbEntity
  8
Layer 1
 62
     7
100
AcDbHatch
 10
0.0
 20
0.0
 30
0.0
210
0.0
220
0.0
230
1.0
  2
SOLID
 70
     1
 71
     0
 91
        1
 92
        1
 93
        3
 72
     1
 10
175.3302110021744
 20
1150.346493581771
 11
205.3302747425043
 21
1155.346705169063
 72
     1
 10
205.3302747425043
 20
1155.346705169063
 11
205.3302747425043
 21
1145.346454249254
 72
     1
 10
205.3302747425043
 20
1145.346454249254
 11
175.3302110021744
 21
1150.346493581771
 97
        0
 75
     2
 76
     1
 98
        0
  0
POLYLINE
  5
539
330
3C
100
AcDbEntity
  8
Layer 1
370
     0
100
AcDb2dPolyline
 66
     1
 10
0.0
 20
0.0
 30
0.0
  0
VERTEX
  5
53A
330
539
100
AcDbEntity
  8
Layer 1
370
     0
100
AcDbVertex
100
AcDb2dVertex
 10
150.3303588491362
 20
1150.346493581771
 30
0.0
  0
VERTEX
  5
53B
330
539
100
AcDbEntity
  8
Layer 1
370
     0
100
AcDbVertex
100
AcDb2dVertex
 10
120.3302951088063
 20
1145.346454249254
 30
0.0
  0
VERTEX
  5
53C
330
539
100
AcDbEntity
  8
Layer 1
370
     0
100
AcDbVertex
100
AcDb2dVertex
 10
120.3302951088063
 20
1155.346705169063
 30
0.0
  0
SEQEND
  5
53D
330
539
100
AcDbEntity
  8
Layer 1
370
     0
  0
HATCH
  5
53E
330
3C
100
AcDbEntity
  8
Layer 1
 62
     7
100
AcDbHatch
 10
0.0
 20
0.0
 30
0.0
210
0.0
220
0.0
230
1.0
  2
SOLID
 70
     1
 71
     0
 91
        1
 92
        1
 93
        3
 72
     1
 10
150.3303588491362
 20
1150.346493581771
 11
120.3302951088063
 21
1145.346454249254
 72
     1
 10
120.3302951088063
 20
1145.346454249254
 11
120.3302951088063
 21
1155.346705169063
 72
     1
 10
120.3302951088063
 20
1155.346705169063
 11
150.3303588491362
 21
1150.346493581771
 97
        0
 75
     2
 76
     1
 98
        0
  0
POLYLINE
  5
53F
330
3C
100
AcDbEntity
  8
Layer 1
 62
     7
370
    25
100
AcDb2dPolyline
 66
     1
 10
0.0
 20
0.0
 30
0.0
  0
VERTEX
  5
540
330
53F
100
AcDbEntity
  8
Layer 1
 62
     7
370
    25
100
AcDbVertex
100
AcDb2dVertex
 10
175.3302110021744
 20
1070.383415802283
 30
0.0
  0
VERTEX
  5
541
330
53F
100
AcDbEntity
  8
Layer 1
 62
     7
370
    25
100
AcDbVertex
100
AcDb2dVertex
 10
175.3302110021744
 20
1160.346399992032
 30
0.0
  0
SEQEND
  5
542
330
53F
100
AcDbEntity
  8
Layer 1
370
    25
  0
POLYLINE
  5
543
330
3C
100
AcDbEntity
  8
Layer 1
 62
     7
370
    25
100
AcDb2dPolyline
 66
     1
 10
0.0
 20
0.0
 30
0.0
  0
VERTEX
  5
544
330
543
100
AcDbEntity
  8
Layer 1
 62
     7
370
    25
100
AcDbVertex
100
AcDb2dVertex
 10
150.3303588491362
 20
1069.974482968184
 30
0.0
  0
VERTEX
  5
545
330
543
100
AcDbEntity
  8
Layer 1
 62
     7
370
    25
100
AcDbVertex
100
AcDb2dVertex
 10
150.3303588491362
 20
1160.346399992032
 30
0.0
  0
SEQEND
  5
546
330
543
100
AcDbEntity
  8
Layer 1
370
    25
  0
POLYLINE
  5
547
330
3C
100
AcDbEntity
  8
Layer 1
 62
     7
370
    25
100
AcDb2dPolyline
 66
     1
 10
0.0
 20
0.0
 30
0.0
  0
VERTEX
  5
548
330
547
100
AcDbEntity
  8
Layer 1
 62
     7
370
    25
100
AcDbVertex
100
AcDb2dVertex
 10
175.3302110021744
 20
1150.346493581771
 30
0.0
  0
VERTEX
  5
549
330
547
100
AcDbEntity
  8
Layer 1
 62
     7
370
    25
100
AcDbVertex
100
AcDb2dVertex
 10
235.3303384828341
 20
1150.346493581771
 30
0.0
  0
SEQEND
  5
54A
330
547
100
AcDbEntity
  8
Layer 1
370
    25
  0
POLYLINE
  5
54B
330
3C
100
AcDbEntity
  8
Layer 1
 62
     7
370
    25
100
AcDb2dPolyline
 66
     1
 10
0.0
 20
0.0
 30
0.0
  0
VERTEX
  5
54C
330
54B
100
AcDbEntity
  8
Layer 1
 62
     7
370
    25
100
AcDbVertex
100
AcDb2dVertex
 10
175.3302110021744
 20
1150.346493581771
 30
0.0
  0
VERTEX
  5
54D
330
54B
100
AcDbEntity
  8
Layer 1
 62
     7
370
    25
100
AcDbVertex
100
AcDb2dVertex
 10
150.3303588491362
 20
1150.346493581771
 30
0.0
  0
SEQEND
  5
54E
330
54B
100
AcDbEntity
  8
Layer 1
370
    25
  0
POLYLINE
  5
54F
330
3C
100
AcDbEntity
  8
Layer 1
 62
     7
370
    25
100
AcDb2dPolyline
 66
     1
 10
0.0
 20
0.0
 30
0.0
  0
VERTEX
  5
550
330
54F
100
AcDbEntity
  8
Layer 1
 62
     7
370
    25
100
AcDbVertex
100
AcDb2dVertex
 10
150.3303588491362
 20
1150.346493581771
 30
0.0
  0
VERTEX
  5
551
330
54F
100
AcDbEntity
  8
Layer 1
 62
     7
370
    25
100
AcDbVertex
100
AcDb2dVertex
 10
38.71960041349718
 20
1150.346493581771
 30
0.0
  0
SEQEND
  5
552
330
54F
100
AcDbEntity
  8
Layer 1
370
    25
  0
POLYLINE
  5
553
330
3C
100
AcDbEntity
  8
Layer 1
 62
     7
370
    25
100
AcDb2dPolyline
 66
     1
 10
0.0
 20
0.0
 30
0.0
  0
VERTEX
  5
554
330
553
100
AcDbEntity
  8
Layer 1
 62
     7
370
    25
100
AcDbVertex
100
AcDb2dVertex
 10
38.71960041349718
 20
1197.861422769111
 30
0.0
  0
VERTEX
  5
555
330
553
100
AcDbEntity
  8
Layer 1
 62
     7
370
    25
100
AcDbVertex
100
AcDb2dVertex
 10
44.01126707884094
 20
1204.917150577677
 30
0.0
  0
SEQEND
  5
556
330
553
100
AcDbEntity
  8
Layer 1
370
    25
  0
POLYLINE
  5
557
330
3C
100
AcDbEntity
  8
Layer 1
 62
     7
370
    25
100
AcDb2dPolyline
 66
     1
 10
0.0
 20
0.0
 30
0.0
  0
VERTEX
  5
558
330
557
100
AcDbEntity
  8
Layer 1
 62
     7
370
    25
100
AcDbVertex
100
AcDb2dVertex
 10
44.01126707884094
 20
1204.917150577677
 30
0.0
  0
VERTEX
  5
559
330
557
100
AcDbEntity
  8
Layer 1
 62
     7
370
    25
100
AcDbVertex
100
AcDb2dVertex
 10
54.5947726643027
 20
1204.917150577677
 30
0.0
  0
SEQEND
  5
55A
330
557
100
AcDbEntity
  8
Layer 1
370
    25
  0
POLYLINE
  5
55B
330
3C
100
AcDbEntity
  8
Layer 1
 62
     7
370
    25
100
AcDb2dPolyline
 66
     1
 10
0.0
 20
0.0
 30
0.0
  0
VERTEX
  5
55C
330
55B
100
AcDbEntity
  8
Layer 1
 62
     7
370
    25
100
AcDbVertex
100
AcDb2dVertex
 10
54.5947726643027
 20
1204.917150577677
 30
0.0
  0
VERTEX
  5
55D
330
55B
100
AcDbEntity
  8
Layer 1
 62
     7
370
    25
100
AcDbVertex
100
AcDb2dVertex
 10
59.88609482009792
 20
1197.861422769111
 30
0.0
  0
SEQEND
  5
55E
330
55B
100
AcDbEntity
  8
Layer 1
370
    25
  0
POLYLINE
  5
55F
330
3C
100
AcDbEntity
  8
Layer 1
 62
     7
370
    25
100
AcDb2dPolyline
 66
     1
 10
0.0
 20
0.0
 30
0.0
  0
VERTEX
  5
560
330
55F
100
AcDbEntity
  8
Layer 1
 62
     7
370
    25
100
AcDbVertex
100
AcDb2dVertex
 10
59.88609482009792
 20
1197.861422769111
 30
0.0
  0
VERTEX
  5
561
330
55F
100
AcDbEntity
  8
Layer 1
 62
     7
370
    25
100
AcDbVertex
100
AcDb2dVertex
 10
59.88609482009792
 20
1190.806039470094
 30
0.0
  0
SEQEND
  5
562
330
55F
100
AcDbEntity
  8
Layer 1
370
    25
  0
POLYLINE
  5
563
330
3C
100
AcDbEntity
  8
Layer 1
 62
     7
370
    25
100
AcDb2dPolyline
 66
     1
 10
0.0
 20
0.0
 30
0.0
  0
VERTEX
  5
564
330
563
100
AcDbEntity
  8
Layer 1
 62
     7
370
    25
100
AcDbVertex
100
AcDb2dVertex
 10
59.88609482009792
 20
1190.806039470094
 30
0.0
  0
VERTEX
  5
565
330
563
100
AcDbEntity
  8
Layer 1
 62
     7
370
    25
100
AcDbVertex
100
AcDb2dVertex
 10
54.5947726643027
 20
1183.750311661528
 30
0.0
  0
SEQEND
  5
566
330
563
100
AcDbEntity
  8
Layer 1
370
    25
  0
POLYLINE
  5
567
330
3C
100
AcDbEntity
  8
Layer 1
 62
     7
370
    25
100
AcDb2dPolyline
 66
     1
 10
0.0
 20
0.0
 30
0.0
  0
VERTEX
  5
568
330
567
100
AcDbEntity
  8
Layer 1
 62
     7
370
    25
100
AcDbVertex
100
AcDb2dVertex
 10
54.5947726643027
 20
1183.750311661528
 30
0.0
  0
VERTEX
  5
569
330
567
100
AcDbEntity
  8
Layer 1
 62
     7
370
    25
100
AcDbVertex
100
AcDb2dVertex
 10
44.01126707884094
 20
1183.750311661528
 30
0.0
  0
SEQEND
  5
56A
330
567
100
AcDbEntity
  8
Layer 1
370
    25
  0
POLYLINE
  5
56B
330
3C
100
AcDbEntity
  8
Layer 1
 62
     7
370
    25
100
AcDb2dPolyline
 66
     1
 10
0.0
 20
0.0
 30
0.0
  0
VERTEX
  5
56C
330
56B
100
AcDbEntity
  8
Layer 1
 62
     7
370
    25
100
AcDbVertex
100
AcDb2dVertex
 10
44.01126707884094
 20
1183.750311661528
 30
0.0
  0
VERTEX
  5
56D
330
56B
100
AcDbEntity
  8
Layer 1
 62
     7
370
    25
100
AcDbVertex
100
AcDb2dVertex
 10
38.71960041349718
 20
1176.69492836251
 30
0.0
  0
SEQEND
  5
56E
330
56B
100
AcDbEntity
  8
Layer 1
370
    25
  0
POLYLINE
  5
56F
330
3C
100
AcDbEntity
  8
Layer 1
 62
     7
370
    25
100
AcDb2dPolyline
 66
     1
 10
0.0
 20
0.0
 30
0.0
  0
VERTEX
  5
570
330
56F
100
AcDbEntity
  8
Layer 1
 62
     7
370
    25
100
AcDbVertex
100
AcDb2dVertex
 10
38.71960041349718
 20
1176.69492836251
 30
0.0
  0
VERTEX
  5
571
330
56F
100
AcDbEntity
  8
Layer 1
 62
     7
370
    25
100
AcDbVertex
100
AcDb2dVertex
 10
38.71960041349718
 20
1162.583817254927
 30
0.0
  0
SEQEND
  5
572
330
56F
100
AcDbEntity
  8
Layer 1
370
    25
  0
POLYLINE
  5
573
330
3C
100
AcDbEntity
  8
Layer 1
 62
     7
370
    25
100
AcDb2dPolyline
 66
     1
 10
0.0
 20
0.0
 30
0.0
  0
VERTEX
  5
574
330
573
100
AcDbEntity
  8
Layer 1
 62
     7
370
    25
100
AcDbVertex
100
AcDb2dVertex
 10
38.71960041349718
 20
1162.583817254927
 30
0.0
  0
VERTEX
  5
575
330
573
100
AcDbEntity
  8
Layer 1
 62
     7
370
    25
100
AcDbVertex
100
AcDb2dVertex
 10
59.88609482009792
 20
1162.583817254927
 30
0.0
  0
SEQEND
  5
576
330
573
100
AcDbEntity
  8
Layer 1
370
    25
  0
POLYLINE
  5
577
330
3C
100
AcDbEntity
  8
Layer 1
 62
     7
370
    25
100
AcDb2dPolyline
 66
     1
 10
0.0
 20
0.0
 30
0.0
  0
VERTEX
  5
578
330
577
100
AcDbEntity
  8
Layer 1
 62
     7
370
    25
100
AcDbVertex
100
AcDb2dVertex
 10
70.46960040555969
 20
1169.639200553944
 30
0.0
  0
VERTEX
  5
579
330
577
100
AcDbEntity
  8
Layer 1
 62
     7
370
    25
100
AcDbVertex
100
AcDb2dVertex
 10
75.76126707090344
 20
1162.583817254927
 30
0.0
  0
SEQEND
  5
57A
330
577
100
AcDbEntity
  8
Layer 1
370
    25
  0
POLYLINE
  5
57B
330
3C
100
AcDbEntity
  8
Layer 1
 62
     7
370
    25
100
AcDb2dPolyline
 66
     1
 10
0.0
 20
0.0
 30
0.0
  0
VERTEX
  5
57C
330
57B
100
AcDbEntity
  8
Layer 1
 62
     7
370
    25
100
AcDbVertex
100
AcDb2dVertex
 10
75.76126707090344
 20
1162.583817254927
 30
0.0
  0
VERTEX
  5
57D
330
57B
100
AcDbEntity
  8
Layer 1
 62
     7
370
    25
100
AcDbVertex
100
AcDb2dVertex
 10
86.3447726563652
 20
1162.583817254927
 30
0.0
  0
SEQEND
  5
57E
330
57B
100
AcDbEntity
  8
Layer 1
370
    25
  0
POLYLINE
  5
57F
330
3C
100
AcDbEntity
  8
Layer 1
 62
     7
370
    25
100
AcDb2dPolyline
 66
     1
 10
0.0
 20
0.0
 30
0.0
  0
VERTEX
  5
580
330
57F
100
AcDbEntity
  8
Layer 1
 62
     7
370
    25
100
AcDbVertex
100
AcDb2dVertex
 10
86.3447726563652
 20
1162.583817254927
 30
0.0
  0
VERTEX
  5
581
330
57F
100
AcDbEntity
  8
Layer 1
 62
     7
370
    25
100
AcDbVertex
100
AcDb2dVertex
 10
91.63643932170895
 20
1169.639200553944
 30
0.0
  0
SEQEND
  5
582
330
57F
100
AcDbEntity
  8
Layer 1
370
    25
  0
POLYLINE
  5
583
330
3C
100
AcDbEntity
  8
Layer 1
 62
     7
370
    25
100
AcDb2dPolyline
 66
     1
 10
0.0
 20
0.0
 30
0.0
  0
VERTEX
  5
584
330
583
100
AcDbEntity
  8
Layer 1
 62
     7
370
    25
100
AcDbVertex
100
AcDb2dVertex
 10
91.63643932170895
 20
1169.639200553944
 30
0.0
  0
VERTEX
  5
585
330
583
100
AcDbEntity
  8
Layer 1
 62
     7
370
    25
100
AcDbVertex
100
AcDb2dVertex
 10
91.63643932170895
 20
1183.750311661528
 30
0.0
  0
SEQEND
  5
586
330
583
100
AcDbEntity
  8
Layer 1
370
    25
  0
POLYLINE
  5
587
330
3C
100
AcDbEntity
  8
Layer 1
 62
     7
370
    25
100
AcDb2dPolyline
 66
     1
 10
0.0
 20
0.0
 30
0.0
  0
VERTEX
  5
588
330
587
100
AcDbEntity
  8
Layer 1
 62
     7
370
    25
100
AcDbVertex
100
AcDb2dVertex
 10
91.63643932170895
 20
1183.750311661528
 30
0.0
  0
VERTEX
  5
589
330
587
100
AcDbEntity
  8
Layer 1
 62
     7
370
    25
100
AcDbVertex
100
AcDb2dVertex
 10
86.3447726563652
 20
1190.806039470094
 30
0.0
  0
SEQEND
  5
58A
330
587
100
AcDbEntity
  8
Layer 1
370
    25
  0
POLYLINE
  5
58B
330
3C
100
AcDbEntity
  8
Layer 1
 62
     7
370
    25
100
AcDb2dPolyline
 66
     1
 10
0.0
 20
0.0
 30
0.0
  0
VERTEX
  5
58C
330
58B
100
AcDbEntity
  8
Layer 1
 62
     7
370
    25
100
AcDbVertex
100
AcDb2dVertex
 10
86.3447726563652
 20
1190.806039470094
 30
0.0
  0
VERTEX
  5
58D
330
58B
100
AcDbEntity
  8
Layer 1
 62
     7
370
    25
100
AcDbVertex
100
AcDb2dVertex
 10
70.46960040555969
 20
1190.806039470094
 30
0.0
  0
SEQEND
  5
58E
330
58B
100
AcDbEntity
  8
Layer 1
370
    25
  0
POLYLINE
  5
58F
330
3C
100
AcDbEntity
  8
Layer 1
 62
     7
370
    25
100
AcDb2dPolyline
 66
     1
 10
0.0
 20
0.0
 30
0.0
  0
VERTEX
  5
590
330
58F
100
AcDbEntity
  8
Layer 1
 62
     7
370
    25
100
AcDbVertex
100
AcDb2dVertex
 10
70.46960040555969
 20
1190.806039470094
 30
0.0
  0
VERTEX
  5
591
330
58F
100
AcDbEntity
  8
Layer 1
 62
     7
370
    25
100
AcDbVertex
100
AcDb2dVertex
 10
70.46960040555969
 20
1204.917150577677
 30
0.0
  0
SEQEND
  5
592
330
58F
100
AcDbEntity
  8
Layer 1
370
    25
  0
POLYLINE
  5
593
330
3C
100
AcDbEntity
  8
Layer 1
 62
     7
370
    25
100
AcDb2dPolyline
 66
     1
 10
0.0
 20
0.0
 30
0.0
  0
VERTEX
  5
594
330
593
100
AcDbEntity
  8
Layer 1
 62
     7
370
    25
100
AcDbVertex
100
AcDb2dVertex
 10
70.46960040555969
 20
1204.917150577677
 30
0.0
  0
VERTEX
  5
595
330
593
100
AcDbEntity
  8
Layer 1
 62
     7
370
    25
100
AcDbVertex
100
AcDb2dVertex
 10
91.63643932170895
 20
1204.917150577677
 30
0.0
  0
SEQEND
  5
596
330
593
100
AcDbEntity
  8
Layer 1
370
    25
  0
ENDBLK
  5
3F
330
3C
100
AcDbEntity
  8
0
100
AcDbBlockEnd
  0
BLOCK
  5
59A
330
598
100
AcDbEntity
  8
0
100
AcDbBlockBegin
  2
block 3
 70
     0
 71
     0
 10
0.0
 20
0.0
 30
0.0
  3
block 3
  1

  0
SPLINE
  5
59C
330
598
100
AcDbEntity
  8
Layer 1
370
     0
100
AcDbSpline
210
0.0
220
0.0
230
1.0
 70
    11
 71
     3
 72
    38
 73
    34
 74
     0
 42
0.0000000001
 43
0.0000000001
 40
0.0
 40
0.0
 40
0.0
 40
0.0
 40
1.0
 40
1.0
 40
1.0
 40
2.0
 40
2.0
 40
2.0
 40
3.0
 40
3.0
 40
3.0
 40
4.0
 40
4.0
 40
4.0
 40
5.0
 40
5.0
 40
5.0
 40
6.0
 40
6.0
 40
6.0
 40
7.0
 40
7.0
 40
7.0
 40
8.0
 40
8.0
 40
8.0
 40
9.0
 40
9.0
 40
9.0
 40
10.0
 40
10.0
 40
10.0
 40
11.0
 40
11.0
 40
11.0
 40
11.0
 10
1077.128395998079
 20
84.8471896489271
 30
0.0
 10
1077.128395998079
 20
84.8471896489271
 30
0.0
 10
1077.097390138712
 20
84.98189288240036
 30
0.0
 10
1077.097390138712
 20
84.98189288240036
 30
0.0
 10
1077.490820043127
 20
85.72086586398646
 30
0.0
 10
1078.126784669704
 20
86.06089678838062
 30
0.0
 10
1078.932937013253
 20
85.59856497426009
 30
0.0
 10
1079.639870606826
 20
85.23924151514852
 30
0.0
 10
1080.815337186393
 20
86.02713485262517
 30
0.0
 10
1081.555343696625
 20
86.204212760567
 30
0.0
 10
1084.241829156023
 20
87.21500377593931
 30
0.0
 10
1087.068874511219
 20
87.91194659260535
 30
0.0
 10
1089.787743868178
 20
88.87760685712088
 30
0.0
 10
1089.787743868178
 20
88.87760685712088
 30
0.0
 10
1089.952419432373
 20
88.92411564617176
 30
0.0
 10
1090.147411836838
 20
88.92480466526881
 30
0.0
 10
1090.891552461652
 20
88.9303168180452
 30
0.0
 10
1091.422786185478
 20
88.25335555519361
 30
0.0
 10
1090.773730196057
 20
87.62565915778109
 30
0.0
 10
1090.082644041715
 20
86.95799965273967
 30
0.0
 10
1088.150634493587
 20
86.28965112860121
 30
0.0
 10
1087.258354762908
 20
85.85970321204202
 30
0.0
 10
1087.258354762908
 20
85.85970321204202
 30
0.0
 10
1080.895952420748
 20
83.41609698435431
 30
0.0
 10
1080.346804200399
 20
83.1690836380619
 30
0.0
 10
1080.240006240357
 20
83.12188582991398
 30
0.0
 10
1080.15043375774
 20
83.06538626395587
 30
0.0
 10
1080.064306370609
 20
83.00199650702729
 30
0.0
 10
1080.064306370609
 20
83.00199650702729
 30
0.0
 10
1079.795588922759
 20
82.79839136384902
 30
0.0
 10
1079.795588922759
 20
82.79839136384902
 30
0.0
 10
1078.536751032449
 20
81.89267576077684
 30
0.0
 10
1077.34543701365
 20
83.86843802156761
 30
0.0
 10
1077.128395998079
 20
84.8471896489271
 30
0.0
  0
HATCH
  5
59D
330
598
100
AcDbEntity
  8
Layer 1
 62
   254
100
AcDbHatch
 10
0.0
 20
0.0
 30
0.0
210
0.0
220
0.0
230
1.0
  2
SOLID
 70
     1
 71
     0
 91
        1
 92
        1
 93
        2
 72
     4
 94
        3
 73
     0
 74
     0
 95
       38
 96
       34
 40
0.0
 40
0.0
 40
0.0
 40
0.0
 40
0.3527777776895833
 40
0.3527777776895833
 40
0.3527777776895833
 40
0.7055555553791667
 40
0.7055555553791667
 40
0.7055555553791667
 40
1.05833333306875
 40
1.05833333306875
 40
1.05833333306875
 40
1.411111110758333
 40
1.411111110758333
 40
1.411111110758333
 40
1.763888888447917
 40
1.763888888447917
 40
1.763888888447917
 40
2.1166666661375
 40
2.1166666661375
 40
2.1166666661375
 40
2.469444443827083
 40
2.469444443827083
 40
2.469444443827083
 40
2.822222221516667
 40
2.822222221516667
 40
2.822222221516667
 40
3.17499999920625
 40
3.17499999920625
 40
3.17499999920625
 40
3.527777776895833
 40
3.527777776895833
 40
3.527777776895833
 40
3.880555554585417
 40
3.880555554585417
 40
3.880555554585417
 40
3.880555554585417
 10
1077.128395998079
 20
84.8471896489271
 10
1077.128395998079
 20
84.8471896489271
 10
1077.097390138712
 20
84.98189288240036
 10
1077.097390138712
 20
84.98189288240036
 10
1077.490820043127
 20
85.72086586398646
 10
1078.126784669704
 20
86.06089678838062
 10
1078.932937013253
 20
85.59856497426009
 10
1079.639870606826
 20
85.23924151514852
 10
1080.815337186393
 20
86.02713485262517
 10
1081.555343696625
 20
86.204212760567
 10
1084.241829156023
 20
87.21500377593931
 10
1087.068874511219
 20
87.91194659260535
 10
1089.787743868178
 20
88.87760685712088
 10
1089.787743868178
 20
88.87760685712088
 10
1089.952419432373
 20
88.92411564617176
 10
1090.147411836838
 20
88.92480466526881
 10
1090.891552461652
 20
88.9303168180452
 10
1091.422786185478
 20
88.25335555519361
 10
1090.773730196057
 20
87.62565915778109
 10
1090.082644041715
 20
86.95799965273967
 10
1088.150634493587
 20
86.28965112860121
 10
1087.258354762908
 20
85.85970321204202
 10
1087.258354762908
 20
85.85970321204202
 10
1080.895952420748
 20
83.41609698435431
 10
1080.346804200399
 20
83.1690836380619
 10
1080.240006240357
 20
83.12188582991398
 10
1080.15043375774
 20
83.06538626395587
 10
1080.064306370609
 20
83.00199650702729
 10
1080.064306370609
 20
83.00199650702729
 10
1079.795588922759
 20
82.79839136384902
 10
1079.795588922759
 20
82.79839136384902
 10
1078.536751032449
 20
81.89267576077684
 10
1077.34543701365
 20
83.86843802156761
 10
1077.128395998079
 20
84.8471896489271
 72
     1
 10
1077.128395998079
 20
84.8471896489271
 11
1077.128395998079
 21
84.8471896489271
 97
        0
 75
     2
 76
     1
 98
        0
  0
SPLINE
  5
59E
330
598
100
AcDbEntity
  8
Layer 1
370
     0
100
AcDbSpline
210
0.0
220
0.0
230
1.0
 70
    11
 71
     3
 72
    14
 73
    10
 74
     0
 42
0.0000000001
 43
0.0000000001
 40
0.0
 40
0.0
 40
0.0
 40
0.0
 40
1.0
 40
1.0
 40
1.0
 40
2.0
 40
2.0
 40
2.0
 40
3.0
 40
3.0
 40
3.0
 40
3.0
 10
1050.612874086305
 20
90.3672661449429
 30
0.0
 10
1050.397211108929
 20
87.43480086789825
 30
0.0
 10
1049.193494746382
 20
85.49417858105701
 30
0.0
 10
1047.758267967227
 20
83.07227645492638
 30
0.0
 10
1047.776182463751
 20
86.11395125885346
 30
0.0
 10
1048.189593921981
 20
88.83557669220083
 30
0.0
 10
1050.05821371318
 20
90.80858287660341
 30
0.0
 10
1050.297992358953
 20
91.13552243815363
 30
0.0
 10
1050.673507766846
 20
91.078678362647
 30
0.0
 10
1050.612874086305
 20
90.3672661449429
 30
0.0
  0
SPLINE
  5
59F
330
598
100
AcDbEntity
  8
Layer 1
370
     0
100
AcDbSpline
210
0.0
220
0.0
230
1.0
 70
    11
 71
     3
 72
    14
 73
    10
 74
     0
 42
0.0000000001
 43
0.0000000001
 40
0.0
 40
0.0
 40
0.0
 40
0.0
 40
1.0
 40
1.0
 40
1.0
 40
2.0
 40
2.0
 40
2.0
 40
3.0
 40
3.0
 40
3.0
 40
3.0
 10
1079.845198297747
 20
78.11375052300629
 30
0.0
 10
1079.835552030388
 20
77.86742619581092
 30
0.0
 10
1079.248507759702
 20
77.21871471593838
 30
0.0
 10
1078.192241483924
 20
77.03578014567161
 30
0.0
 10
1077.99931613675
 20
78.27739255855566
 30
0.0
 10
1078.598762751184
 20
79.00258515820074
 30
0.0
 10
1079.18580702187
 20
79.00258515820074
 30
0.0
 10
1079.671565485291
 20
79.00258515820074
 30
0.0
 10
1079.872070042532
 20
78.82033960703103
 30
0.0
 10
1079.845198297747
 20
78.11375052300629
 30
0.0
  0
SPLINE
  5
5A0
330
598
100
AcDbEntity
  8
Layer 1
370
     0
100
AcDbSpline
210
0.0
220
0.0
230
1.0
 70
    11
 71
     3
 72
   200
 73
   196
 74
     0
 42
0.0000000001
 43
0.0000000001
 40
0.0
 40
0.0
 40
0.0
 40
0.0
 40
1.0
 40
1.0
 40
1.0
 40
2.0
 40
2.0
 40
2.0
 40
3.0
 40
3.0
 40
3.0
 40
4.0
 40
4.0
 40
4.0
 40
5.0
 40
5.0
 40
5.0
 40
6.0
 40
6.0
 40
6.0
 40
7.0
 40
7.0
 40
7.0
 40
8.0
 40
8.0
 40
8.0
 40
9.0
 40
9.0
 40
9.0
 40
10.0
 40
10.0
 40
10.0
 40
11.0
 40
11.0
 40
11.0
 40
12.0
 40
12.0
 40
12.0
 40
13.0
 40
13.0
 40
13.0
 40
14.0
 40
14.0
 40
14.0
 40
15.0
 40
15.0
 40
15.0
 40
16.0
 40
16.0
 40
16.0
 40
17.0
 40
17.0
 40
17.0
 40
18.0
 40
18.0
 40
18.0
 40
19.0
 40
19.0
 40
19.0
 40
20.0
 40
20.0
 40
20.0
 40
21.0
 40
21.0
 40
21.0
 40
22.0
 40
22.0
 40
22.0
 40
23.0
 40
23.0
 40
23.0
 40
24.0
 40
24.0
 40
24.0
 40
25.0
 40
25.0
 40
25.0
 40
26.0
 40
26.0
 40
26.0
 40
27.0
 40
27.0
 40
27.0
 40
28.0
 40
28.0
 40
28.0
 40
29.0
 40
29.0
 40
29.0
 40
30.0
 40
30.0
 40
30.0
 40
31.0
 40
31.0
 40
31.0
 40
32.0
 40
32.0
 40
32.0
 40
33.0
 40
33.0
 40
33.0
 40
34.0
 40
34.0
 40
34.0
 40
35.0
 40
35.0
 40
35.0
 40
36.0
 40
36.0
 40
36.0
 40
37.0
 40
37.0
 40
37.0
 40
38.0
 40
38.0
 40
38.0
 40
39.0
 40
39.0
 40
39.0
 40
40.0
 40
40.0
 40
40.0
 40
41.0
 40
41.0
 40
41.0
 40
42.0
 40
42.0
 40
42.0
 40
43.0
 40
43.0
 40
43.0
 40
44.0
 40
44.0
 40
44.0
 40
45.0
 40
45.0
 40
45.0
 40
46.0
 40
46.0
 40
46.0
 40
47.0
 40
47.0
 40
47.0
 40
48.0
 40
48.0
 40
48.0
 40
49.0
 40
49.0
 40
49.0
 40
50.0
 40
50.0
 40
50.0
 40
51.0
 40
51.0
 40
51.0
 40
52.0
 40
52.0
 40
52.0
 40
53.0
 40
53.0
 40
53.0
 40
54.0
 40
54.0
 40
54.0
 40
55.0
 40
55.0
 40
55.0
 40
56.0
 40
56.0
 40
56.0
 40
57.0
 40
57.0
 40
57.0
 40
58.0
 40
58.0
 40
58.0
 40
59.0
 40
59.0
 40
59.0
 40
60.0
 40
60.0
 40
60.0
 40
61.0
 40
61.0
 40
61.0
 40
62.0
 40
62.0
 40
62.0
 40
63.0
 40
63.0
 40
63.0
 40
64.0
 40
64.0
 40
64.0
 40
65.0
 40
65.0
 40
65.0
 40
65.0
 10
1087.642138399965
 20
75.52889538042334
 30
0.0
 10
1087.642138399965
 20
75.52889538042334
 30
0.0
 10
1087.870892740185
 20
74.57391491191208
 30
0.0
 10
1087.870892740185
 20
74.57391491191208
 30
0.0
 10
1087.996983234945
 20
74.07851018113315
 30
0.0
 10
1088.142366264423
 20
73.61824542430378
 30
0.0
 10
1088.385590005681
 20
73.16521536799343
 30
0.0
 10
1089.928992783073
 20
71.09988062458615
 30
0.0
 10
1093.868803980005
 20
71.33655868442281
 30
0.0
 10
1095.887629934361
 20
71.9625325340927
 30
0.0
 10
1097.005907928874
 20
72.3101426685544
 30
0.0
 10
1098.080088701174
 20
72.88444008594556
 30
0.0
 10
1099.087434621061
 20
73.48319768128198
 30
0.0
 10
1101.655408795767
 20
71.79510089350956
 30
0.0
 10
1104.898621685581
 20
71.27282441794569
 30
0.0
 10
1108.148035747269
 20
71.26007756465026
 30
0.0
 10
1111.469107795049
 20
71.24767522090336
 30
0.0
 10
1114.859770771632
 20
71.77029620601576
 30
0.0
 10
1117.646853019199
 20
72.1761284541782
 30
0.0
 10
1120.611013174708
 20
72.36629772496399
 30
0.0
 10
1122.97434867759
 20
73.76397296332985
 30
0.0
 10
1126.092849110838
 20
73.0932128723517
 30
0.0
 10
1126.765331749559
 20
73.31783309798999
 30
0.0
 10
1127.29518743519
 20
73.66096460832087
 30
0.0
 10
1127.245578060202
 20
74.497089282591
 30
0.0
 10
1126.943787695695
 20
75.23709579282267
 30
0.0
 10
1126.525553103785
 20
75.75420462515868
 30
0.0
 10
1125.653943946017
 20
75.8234510444122
 30
0.0
 10
1124.183577192912
 20
75.19093151332032
 30
0.0
 10
1122.523730188119
 20
75.37834470771791
 30
0.0
 10
1120.988595639892
 20
75.00145126163159
 30
0.0
 10
1117.086680493298
 20
74.09194605352563
 30
0.0
 10
1112.932584357183
 20
73.73503416125375
 30
0.0
 10
1108.517349983287
 20
73.4959445345774
 30
0.0
 10
1105.779877110708
 20
73.51902667432859
 30
0.0
 10
1102.319623205323
 20
73.56140134879715
 30
0.0
 10
1100.411040306494
 20
75.86858179526897
 30
0.0
 10
1100.200200462797
 20
76.56380206419239
 30
0.0
 10
1100.770708275155
 20
77.48674314469082
 30
0.0
 10
1100.543331973128
 20
78.475141039409
 30
0.0
 10
1100.187109099953
 20
79.16484915555601
 30
0.0
 10
1099.603509924752
 20
79.62132430735161
 30
0.0
 10
1098.755327416284
 20
79.39739310081038
 30
0.0
 10
1097.592263180463
 20
78.55713431195794
 30
0.0
 10
1097.608110619695
 20
77.17048337914488
 30
0.0
 10
1097.71215250335
 20
75.90992294109196
 30
0.0
 10
1096.037836097518
 20
73.74605846680655
 30
0.0
 10
1092.184152287718
 20
72.84275443057403
 30
0.0
 10
1090.533951550283
 20
74.52051593189071
 30
0.0
 10
1090.447824163152
 20
74.81713865317072
 30
0.0
 10
1090.28245957986
 20
75.39935979017794
 30
0.0
 10
1090.45058023954
 20
75.8275851589945
 30
0.0
 10
1090.465738659675
 20
75.87926159127325
 30
0.0
 10
1090.481586098907
 20
75.93541664768281
 30
0.0
 10
1090.489165308975
 20
75.99915091415994
 30
0.0
 10
1090.575292696106
 20
76.64924043222658
 30
0.0
 10
1090.361696776021
 20
77.1363769338409
 30
0.0
 10
1089.767073295267
 20
77.34756128708672
 30
0.0
 10
1088.636392957008
 20
77.76269529305932
 30
0.0
 10
1088.703227809421
 20
78.27015785803663
 30
0.0
 10
1087.902587618649
 20
78.97674694206137
 30
0.0
 10
1087.079209797675
 20
79.73501245836486
 30
0.0
 10
1086.120095214581
 20
79.36983233692838
 30
0.0
 10
1085.54820936403
 20
78.6101887824308
 30
0.0
 10
1085.407649468232
 20
76.57620440793929
 30
0.0
 10
1083.971044650882
 20
74.90912270262689
 30
0.0
 10
1082.391123861347
 20
73.81392684786597
 30
0.0
 10
1081.381710884169
 20
73.46493867521016
 30
0.0
 10
1080.116671821985
 20
73.58034937396603
 30
0.0
 10
1079.290537924622
 20
74.14086640941618
 30
0.0
 10
1079.016308323996
 20
74.33034666110491
 30
0.0
 10
1078.919845650409
 20
74.53980846660811
 30
0.0
 10
1078.914333497632
 20
74.68760306292532
 30
0.0
 10
1080.231738011192
 20
75.0582953371382
 30
0.0
 10
1081.412716743536
 20
75.95402016330317
 30
0.0
 10
1082.087266439548
 20
77.18460827063441
 30
0.0
 10
1082.885839573029
 20
79.3274576624598
 30
0.0
 10
1081.33692464286
 20
81.61465655511718
 30
0.0
 10
1078.956363662553
 20
81.28254935033908
 30
0.0
 10
1076.761148819351
 20
80.9752468330548
 30
0.0
 10
1075.678699817886
 20
79.42564288378942
 30
0.0
 10
1075.782741701541
 20
76.75534937317228
 30
0.0
 10
1074.575580243509
 20
76.80564776725693
 30
0.0
 10
1073.49382026114
 20
77.20734590083705
 30
0.0
 10
1072.372097171143
 20
77.65865340940478
 30
0.0
 10
1071.410226511661
 20
78.04726018014097
 30
0.0
 10
1071.237971737399
 20
78.95021970682495
 30
0.0
 10
1069.837195913096
 20
78.68873695949449
 30
0.0
 10
1068.735454376913
 20
77.52360566638299
 30
0.0
 10
1069.507844784706
 20
76.75810544956047
 30
0.0
 10
1070.229936798415
 20
75.83792044545025
 30
0.0
 10
1070.953406850317
 20
74.92014700817968
 30
0.0
 10
1070.920333933659
 20
73.54348685227386
 30
0.0
 10
1069.774495175265
 20
72.89305282465868
 30
0.0
 10
1068.131873647898
 20
72.50375703482545
 30
0.0
 10
1066.75796956838
 20
73.94173989036874
 30
0.0
 10
1065.758891877658
 20
75.00765243350503
 30
0.0
 10
1065.771983240501
 20
75.64327255053362
 30
0.0
 10
1065.790586756122
 20
76.8769612438016
 30
0.0
 10
1065.627289230121
 20
77.42059731137402
 30
0.0
 10
1065.302072216313
 20
78.51165905155264
 30
0.0
 10
1064.597205680031
 20
79.44838051399208
 30
0.0
 10
1063.303227815771
 20
79.01602103059322
 30
0.0
 10
1062.495008414932
 20
77.94115123919528
 30
0.0
 10
1062.804377989507
 20
76.6537190563574
 30
0.0
 10
1063.24741726891
 20
75.55714516340238
 30
0.0
 10
1062.885682242959
 20
74.43404403521093
 30
0.0
 10
1062.351003423648
 20
73.33884818045001
 30
0.0
 10
1061.302316357938
 20
72.78212075003364
 30
0.0
 10
1060.083441575257
 20
72.49169920062708
 30
0.0
 10
1057.961262756343
 20
72.78315427867922
 30
0.0
 10
1057.083452426701
 20
74.95907658716301
 30
0.0
 10
1057.133750820786
 20
75.24812009837548
 30
0.0
 10
1057.267420525614
 20
76.07046439070461
 30
0.0
 10
1057.268798563808
 20
76.9086561222659
 30
0.0
 10
1057.270176602002
 20
77.42610946415041
 30
0.0
 10
1057.221945265208
 20
77.98593748050352
 30
0.0
 10
1057.055202643722
 20
78.44241263229912
 30
0.0
 10
1056.509499518859
 20
79.92552623869918
 30
0.0
 10
1054.285345873581
 20
79.91002330901556
 30
0.0
 10
1054.286723911776
 20
77.35927461173658
 30
0.0
 10
1054.286723911776
 20
76.74914820129882
 30
0.0
 10
1054.377674432586
 20
76.13729924311846
 30
0.0
 10
1054.520301385676
 20
75.54612085784959
 30
0.0
 10
1053.635600865063
 20
73.7288329893803
 30
0.0
 10
1051.81452339156
 20
73.36399737749234
 30
0.0
 10
1050.535703947436
 20
73.60859915694508
 30
0.0
 10
1048.658126907974
 20
74.56668021139305
 30
0.0
 10
1048.051790102571
 20
76.60927732459768
 30
0.0
 10
1047.786517750206
 20
78.71216360879419
 30
0.0
 10
1049.130104989454
 20
80.56424694166449
 30
0.0
 10
1050.262852385004
 20
82.18688691521717
 30
0.0
 10
1051.434873869086
 20
84.44101289121613
 30
0.0
 10
1052.779839146527
 20
86.93974064666784
 30
0.0
 10
1053.300737583897
 20
87.96155596759294
 30
0.0
 10
1053.405468486649
 20
91.04181584095483
 30
0.0
 10
1053.084385587423
 20
94.83693302750605
 30
0.0
 10
1048.41628120491
 20
93.75310598784645
 30
0.0
 10
1047.420648609673
 20
91.7418592435576
 30
0.0
 10
1045.042843705753
 20
88.01667749535694
 30
0.0
 10
1044.632877343008
 20
83.01026473619189
 30
0.0
 10
1045.051800954015
 20
78.7731417988831
 30
0.0
 10
1044.585335025312
 20
77.89670950743555
 30
0.0
 10
1043.881846527224
 20
77.22353784961773
 30
0.0
 10
1043.188693315592
 20
76.53038463798546
 30
0.0
 10
1042.549283593529
 20
75.97985837944253
 30
0.0
 10
1042.025629079771
 20
75.83103025447974
 30
0.0
 10
1041.65218072917
 20
74.97664657413779
 30
0.0
 10
1041.838215885374
 20
74.63179251606428
 30
0.0
 10
1041.892648394041
 20
74.5770154978488
 30
0.0
 10
1042.33430963525
 20
74.31070961683899
 30
0.0
 10
1043.694433332827
 20
73.89350855357523
 30
0.0
 10
1044.503341752763
 20
74.72239852732635
 30
0.0
 10
1045.370127776852
 20
75.55335555836861
 30
0.0
 10
1045.370127776852
 20
75.55335555836861
 30
0.0
 10
1045.747710242035
 20
75.9047552978641
 30
0.0
 10
1045.747710242035
 20
75.9047552978641
 30
0.0
 10
1046.644124087297
 20
74.0282117870485
 30
0.0
 10
1048.013205033136
 20
71.87468259921883
 30
0.0
 10
1050.21944418189
 20
71.26111109329584
 30
0.0
 10
1051.498263626014
 20
71.04648164456478
 30
0.0
 10
1053.047178556183
 20
71.05474987372938
 30
0.0
 10
1054.205419658324
 20
71.77821992563183
 30
0.0
 10
1054.205419658324
 20
71.77821992563183
 30
0.0
 10
1055.91143094262
 20
72.87376028994129
 30
0.0
 10
1055.91143094262
 20
72.87376028994129
 30
0.0
 10
1057.152354336406
 20
71.41028372780715
 30
0.0
 10
1058.763280985309
 20
70.23412812914286
 30
0.0
 10
1060.889593918806
 20
70.43428817683588
 30
0.0
 10
1062.291747781302
 20
70.49492185737627
 30
0.0
 10
1063.401068527553
 20
71.4936550385502
 30
0.0
 10
1064.296793353717
 20
72.46379392719655
 30
0.0
 10
1064.296793353717
 20
72.46379392719655
 30
0.0
 10
1064.811490619214
 20
73.03878036368475
 30
0.0
 10
1064.811490619214
 20
73.03878036368475
 30
0.0
 10
1066.191595870605
 20
71.58736163574899
 30
0.0
 10
1067.799077424022
 20
70.23447263869139
 30
0.0
 10
1070.204443091824
 20
70.67992348493419
 30
0.0
 10
1071.678943959511
 20
70.8704372652685
 30
0.0
 10
1072.463736711051
 20
71.68451332843304
 30
0.0
 10
1073.039756676185
 20
72.97470158765911
 30
0.0
 10
1073.311230200422
 20
73.6061875901054
 30
0.0
 10
1073.232682023359
 20
74.29486217760684
 30
0.0
 10
1073.164469132751
 20
74.95390894393513
 30
0.0
 10
1074.166991918958
 20
74.69552678254139
 30
0.0
 10
1075.206721736407
 20
74.48158635290739
 30
0.0
 10
1076.242317439273
 20
74.44231226437553
 30
0.0
 10
1076.596473255157
 20
73.52660588439613
 30
0.0
 10
1077.222791614375
 20
72.46310490809951
 30
0.0
 10
1078.146077204422
 20
72.03763561567115
 30
0.0
 10
1080.144921604964
 20
71.11676159246387
 30
0.0
 10
1080.25792073688
 20
71.26834579381486
 30
0.0
 10
1082.137564833632
 20
71.36790905333858
 30
0.0
 10
1084.53672932956
 20
71.81335989958139
 30
0.0
 10
1086.299240179814
 20
73.68714733400877
 30
0.0
 10
1087.642138399965
 20
75.52889538042334
 30
0.0
  0
SPLINE
  5
5A1
330
598
100
AcDbEntity
  8
Layer 1
370
     0
100
AcDbSpline
210
0.0
220
0.0
230
1.0
 70
    11
 71
     3
 72
    53
 73
    49
 74
     0
 42
0.0000000001
 43
0.0000000001
 40
0.0
 40
0.0
 40
0.0
 40
0.0
 40
1.0
 40
1.0
 40
1.0
 40
2.0
 40
2.0
 40
2.0
 40
3.0
 40
3.0
 40
3.0
 40
4.0
 40
4.0
 40
4.0
 40
5.0
 40
5.0
 40
5.0
 40
6.0
 40
6.0
 40
6.0
 40
7.0
 40
7.0
 40
7.0
 40
8.0
 40
8.0
 40
8.0
 40
9.0
 40
9.0
 40
9.0
 40
10.0
 40
10.0
 40
10.0
 40
11.0
 40
11.0
 40
11.0
 40
12.0
 40
12.0
 40
12.0
 40
13.0
 40
13.0
 40
13.0
 40
14.0
 40
14.0
 40
14.0
 40
15.0
 40
15.0
 40
15.0
 40
16.0
 40
16.0
 40
16.0
 40
16.0
 10
1029.070002997941
 20
88.8944878249986
 30
0.0
 10
1029.070002997941
 20
88.8944878249986
 30
0.0
 10
1028.560817885221
 20
89.36543237783226
 30
0.0
 10
1028.560817885221
 20
89.36543237783226
 30
0.0
 10
1028.560817885221
 20
89.36543237783226
 30
0.0
 10
1029.05139948232
 20
89.60245494721745
 30
0.0
 10
1029.05139948232
 20
89.60245494721745
 30
0.0
 10
1029.822411851919
 20
89.84981280305838
 30
0.0
 10
1030.658881035738
 20
89.91148001224435
 30
0.0
 10
1031.05093290196
 20
89.01644420517646
 30
0.0
 10
1031.14670655645
 20
88.231306944088
 30
0.0
 10
1030.819422485351
 20
87.75726180531764
 30
0.0
 10
1030.263384074031
 20
87.26805824641215
 30
0.0
 10
1029.066557902456
 20
87.15919322907826
 30
0.0
 10
1028.264539673489
 20
86.05641816424979
 30
0.0
 10
1027.524533163258
 20
85.22993975733836
 30
0.0
 10
1026.670838502013
 20
83.21765948440392
 30
0.0
 10
1027.373637981004
 20
80.79989147285559
 30
0.0
 10
1027.791872572913
 20
78.7731417988831
 30
0.0
 10
1027.791872572913
 20
78.7731417988831
 30
0.0
 10
1028.047498657919
 20
78.52440590484807
 30
0.0
 10
1028.047498657919
 20
78.52440590484807
 30
0.0
 10
1028.508452433845
 20
78.06793075305247
 30
0.0
 10
1028.88327882264
 20
77.58217228963224
 30
0.0
 10
1028.850205905982
 20
76.8852294729662
 30
0.0
 10
1028.411300741161
 20
75.70528426926813
 30
0.0
 10
1026.069324830288
 20
75.13133136142551
 30
0.0
 10
1025.819899917156
 20
77.01510957276011
 30
0.0
 10
1025.39615317247
 20
77.76269529305932
 30
0.0
 10
1025.225965455499
 20
78.30529783198618
 30
0.0
 10
1025.117100438165
 20
78.85892467646583
 30
0.0
 10
1025.117100438165
 20
78.85892467646583
 30
0.0
 10
1025.040619318393
 20
79.29576278399551
 30
0.0
 10
1025.040619318393
 20
79.29576278399551
 30
0.0
 10
1024.896614327109
 20
78.20435653426836
 30
0.0
 10
1025.07162517776
 20
76.9334608097597
 30
0.0
 10
1025.254215238478
 20
75.86100258520142
 30
0.0
 10
1025.630419665467
 20
74.44093422618144
 30
0.0
 10
1026.610204821473
 20
73.35641816742479
 30
0.0
 10
1028.01442574126
 20
72.78625486461594
 30
0.0
 10
1031.232833943581
 20
72.02316621463311
 30
0.0
 10
1033.887624524514
 20
74.22182615331954
 30
0.0
 10
1035.723860418153
 20
76.60066458588456
 30
0.0
 10
1038.615673568471
 20
80.73030054405353
 30
0.0
 10
1041.183647743176
 20
85.90793454883553
 30
0.0
 10
1038.84718398508
 20
90.91055770296681
 30
0.0
 10
1036.058723699319
 20
94.39975041042784
 30
0.0
 10
1030.588601087839
 20
92.77917749416632
 30
0.0
 10
1029.070002997941
 20
88.8944878249986
 30
0.0
  0
SPLINE
  5
5A2
330
598
100
AcDbEntity
  8
Layer 1
370
     0
100
AcDbSpline
210
0.0
220
0.0
230
1.0
 70
    11
 71
     3
 72
    23
 73
    19
 74
     0
 42
0.0000000001
 43
0.0000000001
 40
0.0
 40
0.0
 40
0.0
 40
0.0
 40
1.0
 40
1.0
 40
1.0
 40
2.0
 40
2.0
 40
2.0
 40
3.0
 40
3.0
 40
3.0
 40
4.0
 40
4.0
 40
4.0
 40
5.0
 40
5.0
 40
5.0
 40
6.0
 40
6.0
 40
6.0
 40
6.0
 10
1037.729595009665
 20
74.8939642824918
 30
0.0
 10
1035.464789237662
 20
71.81852754280926
 30
0.0
 10
1031.775091972959
 20
69.76904023863413
 30
0.0
 10
1027.826323527766
 20
70.32507864995345
 30
0.0
 10
1025.042686375684
 20
71.06646319837922
 30
0.0
 10
1023.240901436898
 20
73.77086315430034
 30
0.0
 10
1022.780636680069
 20
76.43047686891322
 30
0.0
 10
1022.21977513507
 20
79.90726723262735
 30
0.0
 10
1023.162353259835
 20
83.07365449312049
 30
0.0
 10
1024.998589153473
 20
85.69089353326478
 30
0.0
 10
1025.549115412015
 20
89.49255640123798
 30
0.0
 10
1027.711257338558
 20
93.14332408695724
 30
0.0
 10
1031.484325914004
 20
94.82143009782243
 30
0.0
 10
1033.836637111332
 20
95.67960338319816
 30
0.0
 10
1039.103499089183
 20
96.05753035793006
 30
0.0
 10
1040.888058550542
 20
92.20005694309582
 30
0.0
 10
1044.127826344871
 20
86.22522784302703
 30
0.0
 10
1040.87910130228
 20
79.6650770200143
 30
0.0
 10
1037.729595009665
 20
74.8939642824918
 30
0.0
  0
SPLINE
  5
5A3
330
598
100
AcDbEntity
  8
Layer 1
370
     0
100
AcDbSpline
210
0.0
220
0.0
230
1.0
 70
    11
 71
     3
 72
    17
 73
    13
 74
     0
 42
0.0000000001
 43
0.0000000001
 40
0.0
 40
0.0
 40
0.0
 40
0.0
 40
1.0
 40
1.0
 40
1.0
 40
2.0
 40
2.0
 40
2.0
 40
3.0
 40
3.0
 40
3.0
 40
4.0
 40
4.0
 40
4.0
 40
4.0
 10
1100.312510575616
 20
81.93401690659984
 30
0.0
 10
1100.465472815162
 20
82.39910479710856
 30
0.0
 10
1100.415863440174
 20
83.01818845580796
 30
0.0
 10
1100.137499724966
 20
83.44641382462451
 30
0.0
 10
1099.535297034144
 20
84.20433483137947
 30
0.0
 10
1098.374988874712
 20
84.74280325572403
 30
0.0
 10
1097.654963918295
 20
83.7495822273265
 30
0.0
 10
1097.292539873246
 20
82.86315915897171
 30
0.0
 10
1097.564013397484
 20
81.98087020519922
 30
0.0
 10
1098.275770124737
 20
81.37246634250411
 30
0.0
 10
1099.032313093297
 20
81.19125431997996
 30
0.0
 10
1099.894275983707
 20
81.01004229745583
 30
0.0
 10
1100.312510575616
 20
81.93401690659984
 30
0.0
  0
SPLINE
  5
5A4
330
598
100
AcDbEntity
  8
Layer 1
370
     0
100
AcDbSpline
210
0.0
220
0.0
230
1.0
 70
    11
 71
     3
 72
    17
 73
    13
 74
     0
 42
0.0000000001
 43
0.0000000001
 40
0.0
 40
0.0
 40
0.0
 40
0.0
 40
1.0
 40
1.0
 40
1.0
 40
2.0
 40
2.0
 40
2.0
 40
3.0
 40
3.0
 40
3.0
 40
4.0
 40
4.0
 40
4.0
 40
4.0
 10
1056.873990621198
 20
83.35374075607129
 30
0.0
 10
1056.484694831365
 20
82.79563528746081
 30
0.0
 10
1055.52351319098
 20
82.79425724926672
 30
0.0
 10
1055.026730422007
 20
82.99717337334793
 30
0.0
 10
1054.308083503784
 20
83.29035099914269
 30
0.0
 10
1053.625265578608
 20
84.23844127668345
 30
0.0
 10
1054.151676168754
 20
85.15518118530844
 30
0.0
 10
1054.739409458537
 20
86.17837454442763
 30
0.0
 10
1055.958973260316
 20
85.89725475283124
 30
0.0
 10
1056.588736715019
 20
85.38428003507755
 30
0.0
 10
1056.983544657629
 20
85.06319713585226
 30
0.0
 10
1057.399712192247
 20
84.1054605909528
 30
0.0
 10
1056.873990621198
 20
83.35374075607129
 30
0.0
  0
HATCH
  5
5A5
330
598
100
AcDbEntity
  8
Layer 1
 62
   152
100
AcDbHatch
 10
0.0
 20
0.0
 30
0.0
210
0.0
220
0.0
230
1.0
  2
SOLID
 70
     1
 71
     0
 91
        7
 92
        1
 93
        2
 72
     4
 94
        3
 73
     0
 74
     0
 95
       14
 96
       10
 40
0.0
 40
0.0
 40
0.0
 40
0.0
 40
0.3527777776895833
 40
0.3527777776895833
 40
0.3527777776895833
 40
0.7055555553791667
 40
0.7055555553791667
 40
0.7055555553791667
 40
1.05833333306875
 40
1.05833333306875
 40
1.05833333306875
 40
1.05833333306875
 10
1050.612874086305
 20
90.3672661449429
 10
1050.397211108929
 20
87.43480086789825
 10
1049.193494746382
 20
85.49417858105701
 10
1047.758267967227
 20
83.07227645492638
 10
1047.776182463751
 20
86.11395125885346
 10
1048.189593921981
 20
88.83557669220083
 10
1050.05821371318
 20
90.80858287660341
 10
1050.297992358953
 20
91.13552243815363
 10
1050.673507766846
 20
91.078678362647
 10
1050.612874086305
 20
90.3672661449429
 72
     1
 10
1050.612874086305
 20
90.3672661449429
 11
1050.612874086305
 21
90.3672661449429
 97
        0
 92
        1
 93
        2
 72
     4
 94
        3
 73
     0
 74
     0
 95
       14
 96
       10
 40
0.0
 40
0.0
 40
0.0
 40
0.0
 40
0.3527777776895833
 40
0.3527777776895833
 40
0.3527777776895833
 40
0.7055555553791667
 40
0.7055555553791667
 40
0.7055555553791667
 40
1.05833333306875
 40
1.05833333306875
 40
1.05833333306875
 40
1.05833333306875
 10
1079.845198297747
 20
78.11375052300629
 10
1079.835552030388
 20
77.86742619581092
 10
1079.248507759702
 20
77.21871471593838
 10
1078.192241483924
 20
77.03578014567161
 10
1077.99931613675
 20
78.27739255855566
 10
1078.598762751184
 20
79.00258515820074
 10
1079.18580702187
 20
79.00258515820074
 10
1079.671565485291
 20
79.00258515820074
 10
1079.872070042532
 20
78.82033960703103
 10
1079.845198297747
 20
78.11375052300629
 72
     1
 10
1079.845198297747
 20
78.11375052300629
 11
1079.845198297747
 21
78.11375052300629
 97
        0
 92
        1
 93
        2
 72
     4
 94
        3
 73
     0
 74
     0
 95
      200
 96
      196
 40
0.0
 40
0.0
 40
0.0
 40
0.0
 40
0.3527777776895833
 40
0.3527777776895833
 40
0.3527777776895833
 40
0.7055555553791667
 40
0.7055555553791667
 40
0.7055555553791667
 40
1.05833333306875
 40
1.05833333306875
 40
1.05833333306875
 40
1.411111110758333
 40
1.411111110758333
 40
1.411111110758333
 40
1.763888888447917
 40
1.763888888447917
 40
1.763888888447917
 40
2.1166666661375
 40
2.1166666661375
 40
2.1166666661375
 40
2.469444443827083
 40
2.469444443827083
 40
2.469444443827083
 40
2.822222221516667
 40
2.822222221516667
 40
2.822222221516667
 40
3.17499999920625
 40
3.17499999920625
 40
3.17499999920625
 40
3.527777776895833
 40
3.527777776895833
 40
3.527777776895833
 40
3.880555554585417
 40
3.880555554585417
 40
3.880555554585417
 40
4.233333332275
 40
4.233333332275
 40
4.233333332275
 40
4.586111109964584
 40
4.586111109964584
 40
4.586111109964584
 40
4.938888887654167
 40
4.938888887654167
 40
4.938888887654167
 40
5.29166666534375
 40
5.29166666534375
 40
5.29166666534375
 40
5.644444443033334
 40
5.644444443033334
 40
5.644444443033334
 40
5.997222220722917
 40
5.997222220722917
 40
5.997222220722917
 40
6.349999998412501
 40
6.349999998412501
 40
6.349999998412501
 40
6.702777776102083
 40
6.702777776102083
 40
6.702777776102083
 40
7.055555553791667
 40
7.055555553791667
 40
7.055555553791667
 40
7.40833333148125
 40
7.40833333148125
 40
7.40833333148125
 40
7.761111109170834
 40
7.761111109170834
 40
7.761111109170834
 40
8.113888886860417
 40
8.113888886860417
 40
8.113888886860417
 40
8.46666666455
 40
8.46666666455
 40
8.46666666455
 40
8.819444442239584
 40
8.819444442239584
 40
8.819444442239584
 40
9.172222219929168
 40
9.172222219929168
 40
9.172222219929168
 40
9.52499999761875
 40
9.52499999761875
 40
9.52499999761875
 40
9.877777775308333
 40
9.877777775308333
 40
9.877777775308333
 40
10.23055555299792
 40
10.23055555299792
 40
10.23055555299792
 40
10.5833333306875
 40
10.5833333306875
 40
10.5833333306875
 40
10.93611110837708
 40
10.93611110837708
 40
10.93611110837708
 40
11.28888888606667
 40
11.28888888606667
 40
11.28888888606667
 40
11.64166666375625
 40
11.64166666375625
 40
11.64166666375625
 40
11.99444444144583
 40
11.99444444144583
 40
11.99444444144583
 40
12.34722221913542
 40
12.34722221913542
 40
12.34722221913542
 40
12.699999996825
 40
12.699999996825
 40
12.699999996825
 40
13.05277777451458
 40
13.05277777451458
 40
13.05277777451458
 40
13.40555555220417
 40
13.40555555220417
 40
13.40555555220417
 40
13.75833332989375
 40
13.75833332989375
 40
13.75833332989375
 40
14.11111110758333
 40
14.11111110758333
 40
14.11111110758333
 40
14.46388888527292
 40
14.46388888527292
 40
14.46388888527292
 40
14.8166666629625
 40
14.8166666629625
 40
14.8166666629625
 40
15.16944444065208
 40
15.16944444065208
 40
15.16944444065208
 40
15.52222221834167
 40
15.52222221834167
 40
15.52222221834167
 40
15.87499999603125
 40
15.87499999603125
 40
15.87499999603125
 40
16.22777777372083
 40
16.22777777372083
 40
16.22777777372083
 40
16.58055555141042
 40
16.58055555141042
 40
16.58055555141042
 40
16.9333333291
 40
16.9333333291
 40
16.9333333291
 40
17.28611110678958
 40
17.28611110678958
 40
17.28611110678958
 40
17.63888888447917
 40
17.63888888447917
 40
17.63888888447917
 40
17.99166666216875
 40
17.99166666216875
 40
17.99166666216875
 40
18.34444443985834
 40
18.34444443985834
 40
18.34444443985834
 40
18.69722221754792
 40
18.69722221754792
 40
18.69722221754792
 40
19.0499999952375
 40
19.0499999952375
 40
19.0499999952375
 40
19.40277777292708
 40
19.40277777292708
 40
19.40277777292708
 40
19.75555555061667
 40
19.75555555061667
 40
19.75555555061667
 40
20.10833332830625
 40
20.10833332830625
 40
20.10833332830625
 40
20.46111110599583
 40
20.46111110599583
 40
20.46111110599583
 40
20.81388888368542
 40
20.81388888368542
 40
20.81388888368542
 40
21.166666661375
 40
21.166666661375
 40
21.166666661375
 40
21.51944443906459
 40
21.51944443906459
 40
21.51944443906459
 40
21.87222221675417
 40
21.87222221675417
 40
21.87222221675417
 40
22.22499999444375
 40
22.22499999444375
 40
22.22499999444375
 40
22.57777777213333
 40
22.57777777213333
 40
22.57777777213333
 40
22.93055554982292
 40
22.93055554982292
 40
22.93055554982292
 40
22.93055554982292
 10
1087.642138399965
 20
75.52889538042334
 10
1087.642138399965
 20
75.52889538042334
 10
1087.870892740185
 20
74.57391491191208
 10
1087.870892740185
 20
74.57391491191208
 10
1087.996983234945
 20
74.07851018113315
 10
1088.142366264423
 20
73.61824542430378
 10
1088.385590005681
 20
73.16521536799343
 10
1089.928992783073
 20
71.09988062458615
 10
1093.868803980005
 20
71.33655868442281
 10
1095.887629934361
 20
71.9625325340927
 10
1097.005907928874
 20
72.3101426685544
 10
1098.080088701174
 20
72.88444008594556
 10
1099.087434621061
 20
73.48319768128198
 10
1101.655408795767
 20
71.79510089350956
 10
1104.898621685581
 20
71.27282441794569
 10
1108.148035747269
 20
71.26007756465026
 10
1111.469107795049
 20
71.24767522090336
 10
1114.859770771632
 20
71.77029620601576
 10
1117.646853019199
 20
72.1761284541782
 10
1120.611013174708
 20
72.36629772496399
 10
1122.97434867759
 20
73.76397296332985
 10
1126.092849110838
 20
73.0932128723517
 10
1126.765331749559
 20
73.31783309798999
 10
1127.29518743519
 20
73.66096460832087
 10
1127.245578060202
 20
74.497089282591
 10
1126.943787695695
 20
75.23709579282267
 10
1126.525553103785
 20
75.75420462515868
 10
1125.653943946017
 20
75.8234510444122
 10
1124.183577192912
 20
75.19093151332032
 10
1122.523730188119
 20
75.37834470771791
 10
1120.988595639892
 20
75.00145126163159
 10
1117.086680493298
 20
74.09194605352563
 10
1112.932584357183
 20
73.73503416125375
 10
1108.517349983287
 20
73.4959445345774
 10
1105.779877110708
 20
73.51902667432859
 10
1102.319623205323
 20
73.56140134879715
 10
1100.411040306494
 20
75.86858179526897
 10
1100.200200462797
 20
76.56380206419239
 10
1100.770708275155
 20
77.48674314469082
 10
1100.543331973128
 20
78.475141039409
 10
1100.187109099953
 20
79.16484915555601
 10
1099.603509924752
 20
79.62132430735161
 10
1098.755327416284
 20
79.39739310081038
 10
1097.592263180463
 20
78.55713431195794
 10
1097.608110619695
 20
77.17048337914488
 10
1097.71215250335
 20
75.90992294109196
 10
1096.037836097518
 20
73.74605846680655
 10
1092.184152287718
 20
72.84275443057403
 10
1090.533951550283
 20
74.52051593189071
 10
1090.447824163152
 20
74.81713865317072
 10
1090.28245957986
 20
75.39935979017794
 10
1090.45058023954
 20
75.8275851589945
 10
1090.465738659675
 20
75.87926159127325
 10
1090.481586098907
 20
75.93541664768281
 10
1090.489165308975
 20
75.99915091415994
 10
1090.575292696106
 20
76.64924043222658
 10
1090.361696776021
 20
77.1363769338409
 10
1089.767073295267
 20
77.34756128708672
 10
1088.636392957008
 20
77.76269529305932
 10
1088.703227809421
 20
78.27015785803663
 10
1087.902587618649
 20
78.97674694206137
 10
1087.079209797675
 20
79.73501245836486
 10
1086.120095214581
 20
79.36983233692838
 10
1085.54820936403
 20
78.6101887824308
 10
1085.407649468232
 20
76.57620440793929
 10
1083.971044650882
 20
74.90912270262689
 10
1082.391123861347
 20
73.81392684786597
 10
1081.381710884169
 20
73.46493867521016
 10
1080.116671821985
 20
73.58034937396603
 10
1079.290537924622
 20
74.14086640941618
 10
1079.016308323996
 20
74.33034666110491
 10
1078.919845650409
 20
74.53980846660811
 10
1078.914333497632
 20
74.68760306292532
 10
1080.231738011192
 20
75.0582953371382
 10
1081.412716743536
 20
75.95402016330317
 10
1082.087266439548
 20
77.18460827063441
 10
1082.885839573029
 20
79.3274576624598
 10
1081.33692464286
 20
81.61465655511718
 10
1078.956363662553
 20
81.28254935033908
 10
1076.761148819351
 20
80.9752468330548
 10
1075.678699817886
 20
79.42564288378942
 10
1075.782741701541
 20
76.75534937317228
 10
1074.575580243509
 20
76.80564776725693
 10
1073.49382026114
 20
77.20734590083705
 10
1072.372097171143
 20
77.65865340940478
 10
1071.410226511661
 20
78.04726018014097
 10
1071.237971737399
 20
78.95021970682495
 10
1069.837195913096
 20
78.68873695949449
 10
1068.735454376913
 20
77.52360566638299
 10
1069.507844784706
 20
76.75810544956047
 10
1070.229936798415
 20
75.83792044545025
 10
1070.953406850317
 20
74.92014700817968
 10
1070.920333933659
 20
73.54348685227386
 10
1069.774495175265
 20
72.89305282465868
 10
1068.131873647898
 20
72.50375703482545
 10
1066.75796956838
 20
73.94173989036874
 10
1065.758891877658
 20
75.00765243350503
 10
1065.771983240501
 20
75.64327255053362
 10
1065.790586756122
 20
76.8769612438016
 10
1065.627289230121
 20
77.42059731137402
 10
1065.302072216313
 20
78.51165905155264
 10
1064.597205680031
 20
79.44838051399208
 10
1063.303227815771
 20
79.01602103059322
 10
1062.495008414932
 20
77.94115123919528
 10
1062.804377989507
 20
76.6537190563574
 10
1063.24741726891
 20
75.55714516340238
 10
1062.885682242959
 20
74.43404403521093
 10
1062.351003423648
 20
73.33884818045001
 10
1061.302316357938
 20
72.78212075003364
 10
1060.083441575257
 20
72.49169920062708
 10
1057.961262756343
 20
72.78315427867922
 10
1057.083452426701
 20
74.95907658716301
 10
1057.133750820786
 20
75.24812009837548
 10
1057.267420525614
 20
76.07046439070461
 10
1057.268798563808
 20
76.9086561222659
 10
1057.270176602002
 20
77.42610946415041
 10
1057.221945265208
 20
77.98593748050352
 10
1057.055202643722
 20
78.44241263229912
 10
1056.509499518859
 20
79.92552623869918
 10
1054.285345873581
 20
79.91002330901556
 10
1054.286723911776
 20
77.35927461173658
 10
1054.286723911776
 20
76.74914820129882
 10
1054.377674432586
 20
76.13729924311846
 10
1054.520301385676
 20
75.54612085784959
 10
1053.635600865063
 20
73.7288329893803
 10
1051.81452339156
 20
73.36399737749234
 10
1050.535703947436
 20
73.60859915694508
 10
1048.658126907974
 20
74.56668021139305
 10
1048.051790102571
 20
76.60927732459768
 10
1047.786517750206
 20
78.71216360879419
 10
1049.130104989454
 20
80.56424694166449
 10
1050.262852385004
 20
82.18688691521717
 10
1051.434873869086
 20
84.44101289121613
 10
1052.779839146527
 20
86.93974064666784
 10
1053.300737583897
 20
87.96155596759294
 10
1053.405468486649
 20
91.04181584095483
 10
1053.084385587423
 20
94.83693302750605
 10
1048.41628120491
 20
93.75310598784645
 10
1047.420648609673
 20
91.7418592435576
 10
1045.042843705753
 20
88.01667749535694
 10
1044.632877343008
 20
83.01026473619189
 10
1045.051800954015
 20
78.7731417988831
 10
1044.585335025312
 20
77.89670950743555
 10
1043.881846527224
 20
77.22353784961773
 10
1043.188693315592
 20
76.53038463798546
 10
1042.549283593529
 20
75.97985837944253
 10
1042.025629079771
 20
75.83103025447974
 10
1041.65218072917
 20
74.97664657413779
 10
1041.838215885374
 20
74.63179251606428
 10
1041.892648394041
 20
74.5770154978488
 10
1042.33430963525
 20
74.31070961683899
 10
1043.694433332827
 20
73.89350855357523
 10
1044.503341752763
 20
74.72239852732635
 10
1045.370127776852
 20
75.55335555836861
 10
1045.370127776852
 20
75.55335555836861
 10
1045.747710242035
 20
75.9047552978641
 10
1045.747710242035
 20
75.9047552978641
 10
1046.644124087297
 20
74.0282117870485
 10
1048.013205033136
 20
71.87468259921883
 10
1050.21944418189
 20
71.26111109329584
 10
1051.498263626014
 20
71.04648164456478
 10
1053.047178556183
 20
71.05474987372938
 10
1054.205419658324
 20
71.77821992563183
 10
1054.205419658324
 20
71.77821992563183
 10
1055.91143094262
 20
72.87376028994129
 10
1055.91143094262
 20
72.87376028994129
 10
1057.152354336406
 20
71.41028372780715
 10
1058.763280985309
 20
70.23412812914286
 10
1060.889593918806
 20
70.43428817683588
 10
1062.291747781302
 20
70.49492185737627
 10
1063.401068527553
 20
71.4936550385502
 10
1064.296793353717
 20
72.46379392719655
 10
1064.296793353717
 20
72.46379392719655
 10
1064.811490619214
 20
73.03878036368475
 10
1064.811490619214
 20
73.03878036368475
 10
1066.191595870605
 20
71.58736163574899
 10
1067.799077424022
 20
70.23447263869139
 10
1070.204443091824
 20
70.67992348493419
 10
1071.678943959511
 20
70.8704372652685
 10
1072.463736711051
 20
71.68451332843304
 10
1073.039756676185
 20
72.97470158765911
 10
1073.311230200422
 20
73.6061875901054
 10
1073.232682023359
 20
74.29486217760684
 10
1073.164469132751
 20
74.95390894393513
 10
1074.166991918958
 20
74.69552678254139
 10
1075.206721736407
 20
74.48158635290739
 10
1076.242317439273
 20
74.44231226437553
 10
1076.596473255157
 20
73.52660588439613
 10
1077.222791614375
 20
72.46310490809951
 10
1078.146077204422
 20
72.03763561567115
 10
1080.144921604964
 20
71.11676159246387
 10
1080.25792073688
 20
71.26834579381486
 10
1082.137564833632
 20
71.36790905333858
 10
1084.53672932956
 20
71.81335989958139
 10
1086.299240179814
 20
73.68714733400877
 10
1087.642138399965
 20
75.52889538042334
 72
     1
 10
1087.642138399965
 20
75.52889538042334
 11
1087.642138399965
 21
75.52889538042334
 97
        0
 92
        1
 93
        2
 72
     4
 94
        3
 73
     0
 74
     0
 95
       53
 96
       49
 40
0.0
 40
0.0
 40
0.0
 40
0.0
 40
0.3527777776895833
 40
0.3527777776895833
 40
0.3527777776895833
 40
0.7055555553791667
 40
0.7055555553791667
 40
0.7055555553791667
 40
1.05833333306875
 40
1.05833333306875
 40
1.05833333306875
 40
1.411111110758333
 40
1.411111110758333
 40
1.411111110758333
 40
1.763888888447917
 40
1.763888888447917
 40
1.763888888447917
 40
2.1166666661375
 40
2.1166666661375
 40
2.1166666661375
 40
2.469444443827083
 40
2.469444443827083
 40
2.469444443827083
 40
2.822222221516667
 40
2.822222221516667
 40
2.822222221516667
 40
3.17499999920625
 40
3.17499999920625
 40
3.17499999920625
 40
3.527777776895833
 40
3.527777776895833
 40
3.527777776895833
 40
3.880555554585417
 40
3.880555554585417
 40
3.880555554585417
 40
4.233333332275
 40
4.233333332275
 40
4.233333332275
 40
4.586111109964584
 40
4.586111109964584
 40
4.586111109964584
 40
4.938888887654167
 40
4.938888887654167
 40
4.938888887654167
 40
5.29166666534375
 40
5.29166666534375
 40
5.29166666534375
 40
5.644444443033334
 40
5.644444443033334
 40
5.644444443033334
 40
5.644444443033334
 10
1029.070002997941
 20
88.8944878249986
 10
1029.070002997941
 20
88.8944878249986
 10
1028.560817885221
 20
89.36543237783226
 10
1028.560817885221
 20
89.36543237783226
 10
1028.560817885221
 20
89.36543237783226
 10
1029.05139948232
 20
89.60245494721745
 10
1029.05139948232
 20
89.60245494721745
 10
1029.822411851919
 20
89.84981280305838
 10
1030.658881035738
 20
89.91148001224435
 10
1031.05093290196
 20
89.01644420517646
 10
1031.14670655645
 20
88.231306944088
 10
1030.819422485351
 20
87.75726180531764
 10
1030.263384074031
 20
87.26805824641215
 10
1029.066557902456
 20
87.15919322907826
 10
1028.264539673489
 20
86.05641816424979
 10
1027.524533163258
 20
85.22993975733836
 10
1026.670838502013
 20
83.21765948440392
 10
1027.373637981004
 20
80.79989147285559
 10
1027.791872572913
 20
78.7731417988831
 10
1027.791872572913
 20
78.7731417988831
 10
1028.047498657919
 20
78.52440590484807
 10
1028.047498657919
 20
78.52440590484807
 10
1028.508452433845
 20
78.06793075305247
 10
1028.88327882264
 20
77.58217228963224
 10
1028.850205905982
 20
76.8852294729662
 10
1028.411300741161
 20
75.70528426926813
 10
1026.069324830288
 20
75.13133136142551
 10
1025.819899917156
 20
77.01510957276011
 10
1025.39615317247
 20
77.76269529305932
 10
1025.225965455499
 20
78.30529783198618
 10
1025.117100438165
 20
78.85892467646583
 10
1025.117100438165
 20
78.85892467646583
 10
1025.040619318393
 20
79.29576278399551
 10
1025.040619318393
 20
79.29576278399551
 10
1024.896614327109
 20
78.20435653426836
 10
1025.07162517776
 20
76.9334608097597
 10
1025.254215238478
 20
75.86100258520142
 10
1025.630419665467
 20
74.44093422618144
 10
1026.610204821473
 20
73.35641816742479
 10
1028.01442574126
 20
72.78625486461594
 10
1031.232833943581
 20
72.02316621463311
 10
1033.887624524514
 20
74.22182615331954
 10
1035.723860418153
 20
76.60066458588456
 10
1038.615673568471
 20
80.73030054405353
 10
1041.183647743176
 20
85.90793454883553
 10
1038.84718398508
 20
90.91055770296681
 10
1036.058723699319
 20
94.39975041042784
 10
1030.588601087839
 20
92.77917749416632
 10
1029.070002997941
 20
88.8944878249986
 72
     1
 10
1029.070002997941
 20
88.8944878249986
 11
1029.070002997941
 21
88.8944878249986
 97
        0
 92
        1
 93
        2
 72
     4
 94
        3
 73
     0
 74
     0
 95
       23
 96
       19
 40
0.0
 40
0.0
 40
0.0
 40
0.0
 40
0.3527777776895833
 40
0.3527777776895833
 40
0.3527777776895833
 40
0.7055555553791667
 40
0.7055555553791667
 40
0.7055555553791667
 40
1.05833333306875
 40
1.05833333306875
 40
1.05833333306875
 40
1.411111110758333
 40
1.411111110758333
 40
1.411111110758333
 40
1.763888888447917
 40
1.763888888447917
 40
1.763888888447917
 40
2.1166666661375
 40
2.1166666661375
 40
2.1166666661375
 40
2.1166666661375
 10
1037.729595009665
 20
74.8939642824918
 10
1035.464789237662
 20
71.81852754280926
 10
1031.775091972959
 20
69.76904023863413
 10
1027.826323527766
 20
70.32507864995345
 10
1025.042686375684
 20
71.06646319837922
 10
1023.240901436898
 20
73.77086315430034
 10
1022.780636680069
 20
76.43047686891322
 10
1022.21977513507
 20
79.90726723262735
 10
1023.162353259835
 20
83.07365449312049
 10
1024.998589153473
 20
85.69089353326478
 10
1025.549115412015
 20
89.49255640123798
 10
1027.711257338558
 20
93.14332408695724
 10
1031.484325914004
 20
94.82143009782243
 10
1033.836637111332
 20
95.67960338319816
 10
1039.103499089183
 20
96.05753035793006
 10
1040.888058550542
 20
92.20005694309582
 10
1044.127826344871
 20
86.22522784302703
 10
1040.87910130228
 20
79.6650770200143
 10
1037.729595009665
 20
74.8939642824918
 72
     1
 10
1037.729595009665
 20
74.8939642824918
 11
1037.729595009665
 21
74.8939642824918
 97
        0
 92
        1
 93
        2
 72
     4
 94
        3
 73
     0
 74
     0
 95
       17
 96
       13
 40
0.0
 40
0.0
 40
0.0
 40
0.0
 40
0.3527777776895833
 40
0.3527777776895833
 40
0.3527777776895833
 40
0.7055555553791667
 40
0.7055555553791667
 40
0.7055555553791667
 40
1.05833333306875
 40
1.05833333306875
 40
1.05833333306875
 40
1.411111110758333
 40
1.411111110758333
 40
1.411111110758333
 40
1.411111110758333
 10
1100.312510575616
 20
81.93401690659984
 10
1100.465472815162
 20
82.39910479710856
 10
1100.415863440174
 20
83.01818845580796
 10
1100.137499724966
 20
83.44641382462451
 10
1099.535297034144
 20
84.20433483137947
 10
1098.374988874712
 20
84.74280325572403
 10
1097.654963918295
 20
83.7495822273265
 10
1097.292539873246
 20
82.86315915897171
 10
1097.564013397484
 20
81.98087020519922
 10
1098.275770124737
 20
81.37246634250411
 10
1099.032313093297
 20
81.19125431997996
 10
1099.894275983707
 20
81.01004229745583
 10
1100.312510575616
 20
81.93401690659984
 72
     1
 10
1100.312510575616
 20
81.93401690659984
 11
1100.312510575616
 21
81.93401690659984
 97
        0
 92
        1
 93
        2
 72
     4
 94
        3
 73
     0
 74
     0
 95
       17
 96
       13
 40
0.0
 40
0.0
 40
0.0
 40
0.0
 40
0.3527777776895833
 40
0.3527777776895833
 40
0.3527777776895833
 40
0.7055555553791667
 40
0.7055555553791667
 40
0.7055555553791667
 40
1.05833333306875
 40
1.05833333306875
 40
1.05833333306875
 40
1.411111110758333
 40
1.411111110758333
 40
1.411111110758333
 40
1.411111110758333
 10
1056.873990621198
 20
83.35374075607129
 10
1056.484694831365
 20
82.79563528746081
 10
1055.52351319098
 20
82.79425724926672
 10
1055.026730422007
 20
82.99717337334793
 10
1054.308083503784
 20
83.29035099914269
 10
1053.625265578608
 20
84.23844127668345
 10
1054.151676168754
 20
85.15518118530844
 10
1054.739409458537
 20
86.17837454442763
 10
1055.958973260316
 20
85.89725475283124
 10
1056.588736715019
 20
85.38428003507755
 10
1056.983544657629
 20
85.06319713585226
 10
1057.399712192247
 20
84.1054605909528
 10
1056.873990621198
 20
83.35374075607129
 72
     1
 10
1056.873990621198
 20
83.35374075607129
 11
1056.873990621198
 21
83.35374075607129
 97
        0
 75
     2
 76
     1
 98
        0
  0
SPLINE
  5
5A6
330
598
100
AcDbEntity
  8
Layer 1
370
     0
100
AcDbSpline
210
0.0
220
0.0
230
1.0
 70
    11
 71
     3
 72
    20
 73
    16
 74
     0
 42
0.0000000001
 43
0.0000000001
 40
0.0
 40
0.0
 40
0.0
 40
0.0
 40
1.0
 40
1.0
 40
1.0
 40
2.0
 40
2.0
 40
2.0
 40
3.0
 40
3.0
 40
3.0
 40
4.0
 40
4.0
 40
4.0
 40
5.0
 40
5.0
 40
5.0
 40
5.0
 10
1124.6769148664
 20
78.90095484138588
 30
0.0
 10
1124.6769148664
 20
78.90095484138588
 30
0.0
 10
1124.972504059035
 20
78.90095484138588
 30
0.0
 10
1124.972504059035
 20
78.90095484138588
 30
0.0
 10
1125.130978451356
 20
78.90095484138588
 30
0.0
 10
1125.286696767289
 20
78.85134546639827
 30
0.0
 10
1125.286696767289
 20
78.67805716349021
 30
0.0
 10
1125.286696767289
 20
78.47893064444277
 30
0.0
 10
1125.163362348918
 20
78.4393120463624
 30
0.0
 10
1124.972504059035
 20
78.4393120463624
 30
0.0
 10
1124.972504059035
 20
78.4393120463624
 30
0.0
 10
1124.6769148664
 20
78.4393120463624
 30
0.0
 10
1124.6769148664
 20
78.4393120463624
 30
0.0
 10
1124.6769148664
 20
78.4393120463624
 30
0.0
 10
1124.6769148664
 20
78.90095484138588
 30
0.0
 10
1124.6769148664
 20
78.90095484138588
 30
0.0
  0
SPLINE
  5
5A7
330
598
100
AcDbEntity
  8
Layer 1
370
     0
100
AcDbSpline
210
0.0
220
0.0
230
1.0
 70
    11
 71
     3
 72
    35
 73
    31
 74
     0
 42
0.0000000001
 43
0.0000000001
 40
0.0
 40
0.0
 40
0.0
 40
0.0
 40
1.0
 40
1.0
 40
1.0
 40
2.0
 40
2.0
 40
2.0
 40
3.0
 40
3.0
 40
3.0
 40
4.0
 40
4.0
 40
4.0
 40
5.0
 40
5.0
 40
5.0
 40
6.0
 40
6.0
 40
6.0
 40
7.0
 40
7.0
 40
7.0
 40
8.0
 40
8.0
 40
8.0
 40
9.0
 40
9.0
 40
9.0
 40
10.0
 40
10.0
 40
10.0
 40
10.0
 10
1124.426800934171
 20
77.56942543633681
 30
0.0
 10
1124.426800934171
 20
77.56942543633681
 30
0.0
 10
1124.6769148664
 20
77.56942543633681
 30
0.0
 10
1124.6769148664
 20
77.56942543633681
 30
0.0
 10
1124.6769148664
 20
77.56942543633681
 30
0.0
 10
1124.6769148664
 20
78.24431964189726
 30
0.0
 10
1124.6769148664
 20
78.24431964189726
 30
0.0
 10
1124.6769148664
 20
78.24431964189726
 30
0.0
 10
1124.884998633709
 20
78.24431964189726
 30
0.0
 10
1124.884998633709
 20
78.24431964189726
 30
0.0
 10
1124.884998633709
 20
78.24431964189726
 30
0.0
 10
1125.311501454783
 20
77.56942543633681
 30
0.0
 10
1125.311501454783
 20
77.56942543633681
 30
0.0
 10
1125.311501454783
 20
77.56942543633681
 30
0.0
 10
1125.575395768954
 20
77.56942543633681
 30
0.0
 10
1125.575395768954
 20
77.56942543633681
 30
0.0
 10
1125.575395768954
 20
77.56942543633681
 30
0.0
 10
1125.142002756909
 20
78.24431964189726
 30
0.0
 10
1125.142002756909
 20
78.24431964189726
 30
0.0
 10
1125.380403364488
 20
78.24431964189726
 30
0.0
 10
1125.536121680422
 20
78.42174205938763
 30
0.0
 10
1125.536121680422
 20
78.66668834838889
 30
0.0
 10
1125.536121680422
 20
78.9550428405043
 30
0.0
 10
1125.361799848868
 20
79.09594724585102
 30
0.0
 10
1125.011778147566
 20
79.09594724585102
 30
0.0
 10
1125.011778147566
 20
79.09594724585102
 30
0.0
 10
1124.426800934171
 20
79.09594724585102
 30
0.0
 10
1124.426800934171
 20
79.09594724585102
 30
0.0
 10
1124.426800934171
 20
79.09594724585102
 30
0.0
 10
1124.426800934171
 20
77.56942543633681
 30
0.0
 10
1124.426800934171
 20
77.56942543633681
 30
0.0
  0
SPLINE
  5
5A8
330
598
100
AcDbEntity
  8
Layer 1
370
     0
100
AcDbSpline
210
0.0
220
0.0
230
1.0
 70
    11
 71
     3
 72
    17
 73
    13
 74
     0
 42
0.0000000001
 43
0.0000000001
 40
0.0
 40
0.0
 40
0.0
 40
0.0
 40
1.0
 40
1.0
 40
1.0
 40
2.0
 40
2.0
 40
2.0
 40
3.0
 40
3.0
 40
3.0
 40
4.0
 40
4.0
 40
4.0
 40
4.0
 10
1123.871451541949
 20
78.33113604812556
 30
0.0
 10
1123.871451541949
 20
78.9550428405043
 30
0.0
 10
1124.323448069614
 20
79.43942326573043
 30
0.0
 10
1124.929095855921
 20
79.43942326573043
 30
0.0
 10
1125.527853451257
 20
79.43942326573043
 30
0.0
 10
1125.978471940728
 20
78.9550428405043
 30
0.0
 10
1125.978471940728
 20
78.33113604812556
 30
0.0
 10
1125.978471940728
 20
77.70722925574681
 30
0.0
 10
1125.527853451257
 20
77.22353784961773
 30
0.0
 10
1124.929095855921
 20
77.22353784961773
 30
0.0
 10
1124.323448069614
 20
77.22353784961773
 30
0.0
 10
1123.871451541949
 20
77.70722925574681
 30
0.0
 10
1123.871451541949
 20
78.33113604812556
 30
0.0
  0
SPLINE
  5
5A9
330
598
100
AcDbEntity
  8
Layer 1
370
     0
100
AcDbSpline
210
0.0
220
0.0
230
1.0
 70
    11
 71
     3
 72
    17
 73
    13
 74
     0
 42
0.0000000001
 43
0.0000000001
 40
0.0
 40
0.0
 40
0.0
 40
0.0
 40
1.0
 40
1.0
 40
1.0
 40
2.0
 40
2.0
 40
2.0
 40
3.0
 40
3.0
 40
3.0
 40
4.0
 40
4.0
 40
4.0
 40
4.0
 10
1123.622715647914
 20
78.33113604812556
 30
0.0
 10
1123.622715647914
 20
77.613522658548
 30
0.0
 10
1124.207003842212
 20
77.02785642605554
 30
0.0
 10
1124.925650760435
 20
77.02785642605554
 30
0.0
 10
1125.643608659561
 20
77.02785642605554
 30
0.0
 10
1126.22789685386
 20
77.613522658548
 30
0.0
 10
1126.22789685386
 20
78.33113604812556
 30
0.0
 10
1126.22789685386
 20
79.04943845680015
 30
0.0
 10
1125.643608659561
 20
79.63441567019557
 30
0.0
 10
1124.925650760435
 20
79.63441567019557
 30
0.0
 10
1124.207003842212
 20
79.63441567019557
 30
0.0
 10
1123.622715647914
 20
79.04943845680015
 30
0.0
 10
1123.622715647914
 20
78.33113604812556
 30
0.0
  0
HATCH
  5
5AA
330
598
100
AcDbEntity
  8
Layer 1
 62
   152
100
AcDbHatch
 10
0.0
 20
0.0
 30
0.0
210
0.0
220
0.0
230
1.0
  2
SOLID
 70
     1
 71
     0
 91
        4
 92
        1
 93
        1
 72
     4
 94
        3
 73
     0
 74
     1
 95
       20
 96
       16
 40
0.0
 40
0.0
 40
0.0
 40
0.0
 40
1.0
 40
1.0
 40
1.0
 40
2.0
 40
2.0
 40
2.0
 40
3.0
 40
3.0
 40
3.0
 40
4.0
 40
4.0
 40
4.0
 40
5.0
 40
5.0
 40
5.0
 40
5.0
 10
1124.6769148664
 20
78.90095484138588
 10
1124.6769148664
 20
78.90095484138588
 10
1124.972504059035
 20
78.90095484138588
 10
1124.972504059035
 20
78.90095484138588
 10
1125.130978451356
 20
78.90095484138588
 10
1125.286696767289
 20
78.85134546639827
 10
1125.286696767289
 20
78.67805716349021
 10
1125.286696767289
 20
78.47893064444277
 10
1125.163362348918
 20
78.4393120463624
 10
1124.972504059035
 20
78.4393120463624
 10
1124.972504059035
 20
78.4393120463624
 10
1124.6769148664
 20
78.4393120463624
 10
1124.6769148664
 20
78.4393120463624
 10
1124.6769148664
 20
78.4393120463624
 10
1124.6769148664
 20
78.90095484138588
 10
1124.6769148664
 20
78.90095484138588
 97
        0
 92
        1
 93
        1
 72
     4
 94
        3
 73
     0
 74
     1
 95
       35
 96
       31
 40
0.0
 40
0.0
 40
0.0
 40
0.0
 40
1.0
 40
1.0
 40
1.0
 40
2.0
 40
2.0
 40
2.0
 40
3.0
 40
3.0
 40
3.0
 40
4.0
 40
4.0
 40
4.0
 40
5.0
 40
5.0
 40
5.0
 40
6.0
 40
6.0
 40
6.0
 40
7.0
 40
7.0
 40
7.0
 40
8.0
 40
8.0
 40
8.0
 40
9.0
 40
9.0
 40
9.0
 40
10.0
 40
10.0
 40
10.0
 40
10.0
 10
1124.426800934171
 20
77.56942543633681
 10
1124.426800934171
 20
77.56942543633681
 10
1124.6769148664
 20
77.56942543633681
 10
1124.6769148664
 20
77.56942543633681
 10
1124.6769148664
 20
77.56942543633681
 10
1124.6769148664
 20
78.24431964189726
 10
1124.6769148664
 20
78.24431964189726
 10
1124.6769148664
 20
78.24431964189726
 10
1124.884998633709
 20
78.24431964189726
 10
1124.884998633709
 20
78.24431964189726
 10
1124.884998633709
 20
78.24431964189726
 10
1125.311501454783
 20
77.56942543633681
 10
1125.311501454783
 20
77.56942543633681
 10
1125.311501454783
 20
77.56942543633681
 10
1125.575395768954
 20
77.56942543633681
 10
1125.575395768954
 20
77.56942543633681
 10
1125.575395768954
 20
77.56942543633681
 10
1125.142002756909
 20
78.24431964189726
 10
1125.142002756909
 20
78.24431964189726
 10
1125.380403364488
 20
78.24431964189726
 10
1125.536121680422
 20
78.42174205938763
 10
1125.536121680422
 20
78.66668834838889
 10
1125.536121680422
 20
78.9550428405043
 10
1125.361799848868
 20
79.09594724585102
 10
1125.011778147566
 20
79.09594724585102
 10
1125.011778147566
 20
79.09594724585102
 10
1124.426800934171
 20
79.09594724585102
 10
1124.426800934171
 20
79.09594724585102
 10
1124.426800934171
 20
79.09594724585102
 10
1124.426800934171
 20
77.56942543633681
 10
1124.426800934171
 20
77.56942543633681
 97
        0
 92
        1
 93
        2
 72
     4
 94
        3
 73
     0
 74
     0
 95
       17
 96
       13
 40
0.0
 40
0.0
 40
0.0
 40
0.0
 40
0.3527777776895833
 40
0.3527777776895833
 40
0.3527777776895833
 40
0.7055555553791667
 40
0.7055555553791667
 40
0.7055555553791667
 40
1.05833333306875
 40
1.05833333306875
 40
1.05833333306875
 40
1.411111110758333
 40
1.411111110758333
 40
1.411111110758333
 40
1.411111110758333
 10
1123.871451541949
 20
78.33113604812556
 10
1123.871451541949
 20
78.9550428405043
 10
1124.323448069614
 20
79.43942326573043
 10
1124.929095855921
 20
79.43942326573043
 10
1125.527853451257
 20
79.43942326573043
 10
1125.978471940728
 20
78.9550428405043
 10
1125.978471940728
 20
78.33113604812556
 10
1125.978471940728
 20
77.70722925574681
 10
1125.527853451257
 20
77.22353784961773
 10
1124.929095855921
 20
77.22353784961773
 10
1124.323448069614
 20
77.22353784961773
 10
1123.871451541949
 20
77.70722925574681
 10
1123.871451541949
 20
78.33113604812556
 72
     1
 10
1123.871451541949
 20
78.33113604812556
 11
1123.871451541949
 21
78.33113604812556
 97
        0
 92
        1
 93
        2
 72
     4
 94
        3
 73
     0
 74
     0
 95
       17
 96
       13
 40
0.0
 40
0.0
 40
0.0
 40
0.0
 40
0.3527777776895833
 40
0.3527777776895833
 40
0.3527777776895833
 40
0.7055555553791667
 40
0.7055555553791667
 40
0.7055555553791667
 40
1.05833333306875
 40
1.05833333306875
 40
1.05833333306875
 40
1.411111110758333
 40
1.411111110758333
 40
1.411111110758333
 40
1.411111110758333
 10
1123.622715647914
 20
78.33113604812556
 10
1123.622715647914
 20
77.613522658548
 10
1124.207003842212
 20
77.02785642605554
 10
1124.925650760435
 20
77.02785642605554
 10
1125.643608659561
 20
77.02785642605554
 10
1126.22789685386
 20
77.613522658548
 10
1126.22789685386
 20
78.33113604812556
 10
1126.22789685386
 20
79.04943845680015
 10
1125.643608659561
 20
79.63441567019557
 10
1124.925650760435
 20
79.63441567019557
 10
1124.207003842212
 20
79.63441567019557
 10
1123.622715647914
 20
79.04943845680015
 10
1123.622715647914
 20
78.33113604812556
 72
     1
 10
1123.622715647914
 20
78.33113604812556
 11
1123.622715647914
 21
78.33113604812556
 97
        0
 75
     2
 76
     1
 98
        0
  0
ENDBLK
  5
59B
330
598
100
AcDbEntity
  8
0
100
AcDbBlockEnd
  0
ENDSEC
  0
SECTION
  2
ENTITIES
  0
INSERT
  5
3D
330
1F
100
AcDbEntity
  8
Layer 1
100
AcDbBlockReference
  2
block 2
 10
0.0
 20
0.0
 30
0.0
  0
MTEXT
  5
597
330
1F
100
AcDbEntity
  8
Layer 1
 62
     7
100
AcDbMText
 10
971.9999292274862
 20
52.9332031117667
 30
0.0
 40
9.595555553156668
 41
0.0
 71
     7
 72
     1
  1
\fFrutiger LT Std 55 Roman|b0|i0|c0|p34;\W1;CAD Drawing: PR1130U
 73
     1
 44
1.0
  0
INSERT
  5
599
330
1F
100
AcDbEntity
  8
Layer 1
100
AcDbBlockReference
  2
block 3
 10
0.0
 20
0.0
 30
0.0
  0
ENDSEC
  0
SECTION
  2
OBJECTS
  0
DICTIONARY
  5
C
330
0
100
AcDbDictionary
281
     1
  3
ACAD_GROUP
350
D
  3
ACAD_LAYOUT
350
1A
  3
ACAD_MLINESTYLE
350
17
  3
ACAD_PLOTSETTINGS
350
19
  3
ACAD_PLOTSTYLENAME
350
E
  3
ACAD_TABLESTYLE
350
5AB
  3
ACAD_VISUALSTYLE
350
2A
  0
DICTIONARY
  5
D
102
{ACAD_REACTORS
330
C
102
}
330
C
100
AcDbDictionary
281
     1
  0
DICTIONARY
  5
1A
102
{ACAD_REACTORS
330
C
102
}
330
C
100
AcDbDictionary
281
     1
  3
Layout1
350
1E
  3
Layout2
350
26
  3
Model
350
22
  0
DICTIONARY
  5
17
102
{ACAD_REACTORS
330
C
102
}
330
C
100
AcDbDictionary
281
     1
  3
Standard
350
18
  0
DICTIONARY
  5
19
102
{ACAD_REACTORS
330
C
102
}
330
C
100
AcDbDictionary
281
     1
  0
ACDBDICTIONARYWDFLT
  5
E
102
{ACAD_REACTORS
330
C
102
}
330
C
100
AcDbDictionary
281
     1
  3
Normal
350
F
100
AcDbDictionaryWithDefault
340
F
  0
DICTIONARY
  5
5AB
102
{ACAD_REACTORS
330
C
102
}
330
C
100
AcDbDictionary
281
     1
  0
DICTIONARY
  5
2A
102
{ACAD_REACTORS
330
C
102
}
330
C
100
AcDbDictionary
281
     1
  3
2dWireframe
350
2F
  3
3D Hidden
350
31
  3
3dWireframe
350
30
  3
Basic
350
32
  3
Brighten
350
36
  3
ColorChange
350
3A
  3
Conceptual
350
34
  3
Dim
350
35
  3
Facepattern
350
39
  3
Flat
350
2B
  3
FlatWithEdges
350
2C
  3
Gouraud
350
2D
  3
GouraudWithEdges
350
2E
  3
Linepattern
350
38
  3
Realistic
350
33
  3
Thicken
350
37
  0
LAYOUT
  5
1E
102
{ACAD_REACTORS
330
1A
102
}
330
1A
100
AcDbPlotSettings
  1

  2
none_device
  4

  6

 40
0.0
 41
0.0
 42
0.0
 43
0.0
 44
0.0
 45
0.0
 46
0.0
 47
0.0
 48
0.0
 49
0.0
140
0.0
141
0.0
142
1.0
143
1.0
 70
   688
 72
     0
 73
     0
 74
     5
  7

 75
    16
147
1.0
148
0.0
149
0.0
100
AcDbLayout
  1
Layout1
 70
     1
 71
     1
 10
0.0
 20
0.0
 11
12.0
 21
9.0
 12
0.0
 22
0.0
 32
0.0
 14
1.000000000000000E+20
 24
1.000000000000000E+20
 34
1.000000000000000E+20
 15
-1.000000000000000E+20
 25
-1.000000000000000E+20
 35
-1.000000000000000E+20
146
0.0
 13
0.0
 23
0.0
 33
0.0
 16
1.0
 26
0.0
 36
0.0
 17
0.0
 27
1.0
 37
0.0
 76
     0
330
1B
  0
LAYOUT
  5
26
102
{ACAD_REACTORS
330
1A
102
}
330
1A
100
AcDbPlotSettings
  1

  2
none_device
  4

  6

 40
0.0
 41
0.0
 42
0.0
 43
0.0
 44
0.0
 45
0.0
 46
0.0
 47
0.0
 48
0.0
 49
0.0
140
0.0
141
0.0
142
1.0
143
1.0
 70
   688
 72
     0
 73
     0
 74
     5
  7

 75
    16
147
1.0
148
0.0
149
0.0
100
AcDbLayout
  1
Layout2
 70
     1
 71
     2
 10
0.0
 20
0.0
 11
0.0
 21
0.0
 12
0.0
 22
0.0
 32
0.0
 14
0.0
 24
0.0
 34
0.0
 15
0.0
 25
0.0
 35
0.0
146
0.0
 13
0.0
 23
0.0
 33
0.0
 16
1.0
 26
0.0
 36
0.0
 17
0.0
 27
1.0
 37
0.0
 76
     0
330
23
  0
LAYOUT
  5
22
102
{ACAD_REACTORS
330
1A
102
}
330
1A
100
AcDbPlotSettings
  1

  2
none_device
  4

  6

 40
0.0
 41
0.0
 42
0.0
 43
0.0
 44
0.0
 45
0.0
 46
0.0
 47
0.0
 48
0.0
 49
0.0
140
0.0
141
0.0
142
1.0
143
1.0
 70
  1712
 72
     0
 73
     0
 74
     0
  7

 75
     0
147
1.0
148
0.0
149
0.0
100
AcDbLayout
  1
Model
 70
     1
 71
     0
 10
0.0
 20
0.0
 11
12.0
 21
9.0
 12
0.0
 22
0.0
 32
0.0
 14
1.000000000000000E+20
 24
1.000000000000000E+20
 34
1.000000000000000E+20
 15
-1.000000000000000E+20
 25
-1.000000000000000E+20
 35
-1.000000000000000E+20
146
0.0
 13
0.0
 23
0.0
 33
0.0
 16
1.0
 26
0.0
 36
0.0
 17
0.0
 27
1.0
 37
0.0
 76
     0
330
1F
331
29
  0
MLINESTYLE
  5
18
102
{ACAD_REACTORS
330
17
102
}
330
17
100
AcDbMlineStyle
  2
Standard
 70
     0
  3

 62
   256
 51
90.0
 52
90.0
 71
     2
 49
0.5
 62
   256
  6
BYLAYER
 49
-0.5
 62
   256
  6
BYLAYER
  0
ACDBPLACEHOLDER
  5
F
102
{ACAD_REACTORS
330
E
102
}
330
E
  0
VISUALSTYLE
  5
2F
102
{ACAD_REACTORS
330
2A
102
}
330
2A
100
AcDbVisualStyle
  2
2dWireframe
 70
     4
 71
     0
 72
     2
 73
     0
 90
        0
 40
-0.6
 41
-30.0
 62
     5
 63
     7
 74
     1
 91
        4
 64
     7
 65
   257
 75
     1
175
     1
 42
1.0
 92
        0
 66
   257
 43
1.0
 76
     1
 77
     6
 78
     2
 67
     7
 79
     5
170
     0
171
     0
290
     0
174
     0
 93
        1
 44
0.0
173
     0
291
     0
 45
0.0
1001
ACAD
1000
AcDbSavedByObjectVersion
1070
     0
  0
VISUALSTYLE
  5
31
102
{ACAD_REACTORS
330
2A
102
}
330
2A
100
AcDbVisualStyle
  2
3D Hidden
 70
     6
 71
     1
 72
     2
 73
     2
 90
        0
 40
-0.6
 41
-30.0
 62
     5
 63
     7
 74
     2
 91
        2
 64
     7
 65
   257
 75
     2
175
     1
 42
40.0
 92
        0
 66
   257
 43
1.0
 76
     1
 77
     6
 78
     2
 67
     7
 79
     3
170
     0
171
     0
290
     0
174
     0
 93
        1
 44
0.0
173
     0
291
     0
 45
0.0
1001
ACAD
1000
AcDbSavedByObjectVersion
1070
     0
  0
VISUALSTYLE
  5
30
102
{ACAD_REACTORS
330
2A
102
}
330
2A
100
AcDbVisualStyle
  2
3dWireframe
 70
     5
 71
     0
 72
     2
 73
     0
 90
        0
 40
-0.6
 41
-30.0
 62
     5
 63
     7
 74
     1
 91
        4
 64
     7
 65
   257
 75
     1
175
     1
 42
1.0
 92
        0
 66
   257
 43
1.0
 76
     1
 77
     6
 78
     2
 67
     7
 79
     5
170
     0
171
     0
290
     0
174
     0
 93
        1
 44
0.0
173
     0
291
     0
 45
0.0
1001
ACAD
1000
AcDbSavedByObjectVersion
1070
     0
  0
VISUALSTYLE
  5
32
102
{ACAD_REACTORS
330
2A
102
}
330
2A
100
AcDbVisualStyle
  2
Basic
 70
     7
 71
     1
 72
     0
 73
     1
 90
        0
 40
-0.6
 41
-30.0
 62
     5
 63
     7
 74
     0
 91
        4
 64
     7
 65
   257
 75
     1
175
     1
 42
1.0
 92
        8
 66
     7
 43
1.0
 76
     1
 77
     6
 78
     2
 67
     7
 79
     5
170
     0
171
     0
290
     0
174
     0
 93
        1
 44
0.0
173
     0
291
     1
 45
0.0
1001
ACAD
1000
AcDbSavedByObjectVersion
1070
     0
  0
VISUALSTYLE
  5
36
102
{ACAD_REACTORS
330
2A
102
}
330
2A
100
AcDbVisualStyle
  2
Brighten
 70
    12
 71
     2
 72
     2
 73
     0
 90
        0
 40
-0.6
 41
-30.0
 62
     5
 63
     7
 74
     1
 91
        4
 64
     7
 65
   257
 75
     1
175
     1
 42
1.0
 92
        8
 66
     7
 43
1.0
 76
     1
 77
     6
 78
     2
 67
     7
 79
     5
170
     0
171
     0
290
     0
174
     0
 93
        1
 44
50.0
173
     0
291
     1
 45
0.0
1001
ACAD
1000
AcDbSavedByObjectVersion
1070
     0
  0
VISUALSTYLE
  5
3A
102
{ACAD_REACTORS
330
2A
102
}
330
2A
100
AcDbVisualStyle
  2
ColorChange
 70
    16
 71
     2
 72
     2
 73
     3
 90
        0
 40
-0.6
 41
-30.0
 62
     5
 63
     8
 74
     1
 91
        4
 64
     7
 65
   257
 75
     1
175
     1
 42
1.0
 92
        8
 66
     8
 43
1.0
 76
     1
 77
     6
 78
     2
 67
     7
 79
     5
170
     0
171
     0
290
     0
174
     0
 93
        1
 44
0.0
173
     0
291
     1
 45
0.0
1001
ACAD
1000
AcDbSavedByObjectVersion
1070
     0
  0
VISUALSTYLE
  5
34
102
{ACAD_REACTORS
330
2A
102
}
330
2A
100
AcDbVisualStyle
  2
Conceptual
 70
     9
 71
     3
 72
     2
 73
     0
 90
        0
 40
-0.6
 41
-30.0
 62
     5
 63
     7
 74
     2
 91
        2
 64
     7
 65
   257
 75
     1
175
     1
 42
40.0
 92
        8
 66
     7
 43
1.0
 76
     1
 77
     6
 78
     2
 67
     7
 79
     3
170
     0
171
     0
290
     0
174
     0
 93
        1
 44
0.0
173
     0
291
     0
 45
0.0
1001
ACAD
1000
AcDbSavedByObjectVersion
1070
     0
  0
VISUALSTYLE
  5
35
102
{ACAD_REACTORS
330
2A
102
}
330
2A
100
AcDbVisualStyle
  2
Dim
 70
    11
 71
     2
 72
     2
 73
     0
 90
        0
 40
-0.6
 41
-30.0
 62
     5
 63
     7
 74
     1
 91
        4
 64
     7
 65
   257
 75
     1
175
     1
 42
1.0
 92
        8
 66
     7
 43
1.0
 76
     1
 77
     6
 78
     2
 67
     7
 79
     5
170
     0
171
     0
290
     0
174
     0
 93
        1
 44
-50.0
173
     0
291
     1
 45
0.0
1001
ACAD
1000
AcDbSavedByObjectVersion
1070
     0
  0
VISUALSTYLE
  5
39
102
{ACAD_REACTORS
330
2A
102
}
330
2A
100
AcDbVisualStyle
  2
Facepattern
 70
    15
 71
     2
 72
     2
 73
     0
 90
        0
 40
-0.6
 41
-30.0
 62
     5
 63
     7
 74
     1
 91
        4
 64
     7
 65
   257
 75
     1
175
     1
 42
1.0
 92
        8
 66
     7
 43
1.0
 76
     1
 77
     6
 78
     2
 67
     7
 79
     5
170
     0
171
     0
290
     0
174
     0
 93
        1
 44
0.0
173
     0
291
     1
 45
0.0
1001
ACAD
1000
AcDbSavedByObjectVersion
1070
     0
  0
VISUALSTYLE
  5
2B
102
{ACAD_REACTORS
330
2A
102
}
330
2A
100
AcDbVisualStyle
  2
Flat
 70
     0
 71
     2
 72
     1
 73
     1
 90
        2
 40
-0.6
 41
30.0
 62
     5
 63
     7
 74
     0
 91
        4
 64
     7
 65
   257
 75
     1
175
     1
 42
1.0
 92
        8
 66
     7
 43
1.0
 76
     1
 77
     6
 78
     2
 67
     7
 79
     5
170
     0
171
     0
290
     0
174
     0
 93
       13
 44
0.0
173
     0
291
     1
 45
0.0
1001
ACAD
1000
AcDbSavedByObjectVersion
1070
     0
  0
VISUALSTYLE
  5
2C
102
{ACAD_REACTORS
330
2A
102
}
330
2A
100
AcDbVisualStyle
  2
FlatWithEdges
 70
     1
 71
     2
 72
     1
 73
     1
 90
        2
 40
-0.6
 41
30.0
 62
     5
 63
     7
 74
     1
 91
        4
 64
     7
 65
   257
 75
     1
175
     1
 42
1.0
 92
        0
 66
   257
 43
1.0
 76
     1
 77
     6
 78
     2
 67
     7
 79
     5
170
     0
171
     0
290
     0
174
     0
 93
       13
 44
0.0
173
     0
291
     1
 45
0.0
1001
ACAD
1000
AcDbSavedByObjectVersion
1070
     0
  0
VISUALSTYLE
  5
2D
102
{ACAD_REACTORS
330
2A
102
}
330
2A
100
AcDbVisualStyle
  2
Gouraud
 70
     2
 71
     2
 72
     2
 73
     1
 90
        2
 40
-0.6
 41
30.0
 62
     5
 63
     7
 74
     0
 91
        4
 64
     7
 65
   257
 75
     1
175
     1
 42
1.0
 92
        0
 66
     7
 43
1.0
 76
     1
 77
     6
 78
     2
 67
     7
 79
     5
170
     0
171
     0
290
     0
174
     0
 93
       13
 44
0.0
173
     0
291
     1
 45
0.0
1001
ACAD
1000
AcDbSavedByObjectVersion
1070
     0
  0
VISUALSTYLE
  5
2E
102
{ACAD_REACTORS
330
2A
102
}
330
2A
100
AcDbVisualStyle
  2
GouraudWithEdges
 70
     3
 71
     2
 72
     2
 73
     1
 90
        2
 40
-0.6
 41
30.0
 62
     5
 63
     7
 74
     1
 91
        4
 64
     7
 65
   257
 75
     1
175
     1
 42
1.0
 92
        0
 66
   257
 43
1.0
 76
     1
 77
     6
 78
     2
 67
     7
 79
     5
170
     0
171
     0
290
     0
174
     0
 93
       13
 44
0.0
173
     0
291
     1
 45
0.0
1001
ACAD
1000
AcDbSavedByObjectVersion
1070
     0
  0
VISUALSTYLE
  5
38
102
{ACAD_REACTORS
330
2A
102
}
330
2A
100
AcDbVisualStyle
  2
Linepattern
 70
    14
 71
     2
 72
     2
 73
     0
 90
        0
 40
-0.6
 41
-30.0
 62
     5
 63
     7
 74
     1
 91
        4
 64
     7
 65
   257
 75
     7
175
     7
 42
1.0
 92
        8
 66
     7
 43
1.0
 76
     1
 77
     6
 78
     2
 67
     7
 79
     5
170
     0
171
     0
290
     0
174
     0
 93
        1
 44
0.0
173
     0
291
     1
 45
0.0
1001
ACAD
1000
AcDbSavedByObjectVersion
1070
     0
  0
VISUALSTYLE
  5
33
102
{ACAD_REACTORS
330
2A
102
}
330
2A
100
AcDbVisualStyle
  2
Realistic
 70
     8
 71
     2
 72
     2
 73
     0
 90
        0
 40
-0.6
 41
-30.0
 62
     5
 63
     7
 74
     1
 91
        0
 64
     7
 65
   257
 75
     1
175
     1
 42
1.0
 92
        8
 66
     8
 43
1.0
 76
     1
 77
     6
 78
     2
 67
     7
 79
     5
170
     0
171
     0
290
     0
174
     0
 93
       13
 44
0.0
173
     0
291
     0
 45
0.0
1001
ACAD
1000
AcDbSavedByObjectVersion
1070
     0
  0
VISUALSTYLE
  5
37
102
{ACAD_REACTORS
330
2A
102
}
330
2A
100
AcDbVisualStyle
  2
Thicken
 70
    13
 71
     2
 72
     2
 73
     0
 90
        0
 40
-0.6
 41
-30.0
 62
     5
 63
     7
 74
     1
 91
        4
 64
     7
 65
   257
 75
     1
175
     1
 42
1.0
 92
       12
 66
     7
 43
1.0
 76
     1
 77
     6
 78
     2
 67
     7
 79
     5
170
     0
171
     0
290
     0
174
     0
 93
        1
 44
0.0
173
     0
291
     1
 45
0.0
1001
ACAD
1000
AcDbSavedByObjectVersion
1070
     0
  0
ENDSEC
  0
EOF
